ISO-10303-21;
HEADER;
FILE_DESCRIPTION (( 'STEP AP203' ),
    '1' );
FILE_NAME ('43313.step',
    '2021-10-13T11:35:54',
    ( '' ),
    ( '' ),
    'SwSTEP 2.0',
    'SolidWorks 2019',
    '' );
FILE_SCHEMA (( 'CONFIG_CONTROL_DESIGN' ));
ENDSEC;

DATA;
#1 = CARTESIAN_POINT ( 'NONE',  ( 7.157536744628425272E-14, -8.870708329312826064E-15, 20.50000000000000355 ) ) ;
#2 = CC_DESIGN_PERSON_AND_ORGANIZATION_ASSIGNMENT ( #228, #190, ( #162 ) ) ;
#3 = AXIS2_PLACEMENT_3D ( 'NONE', #188, #231, #168 ) ;
#4 = DIRECTION ( 'NONE',  ( 4.275831445896958607E-31, 1.000000000000000000, 1.224646799147353454E-16 ) ) ;
#5 = DIRECTION ( 'NONE',  ( 1.510825004591027855E-30, 1.000000000000000000, 4.327174794786743375E-16 ) ) ;
#6 = CARTESIAN_POINT ( 'NONE',  ( 7.862681637631536068E-14, -9.744631146464889194E-15, 22.51961524227064615 ) ) ;
#7 = CC_DESIGN_PERSON_AND_ORGANIZATION_ASSIGNMENT ( #240, #106, ( #144 ) ) ;
#8 = VERTEX_POINT ( 'NONE', #35 ) ;
#9 = MECHANICAL_CONTEXT ( 'NONE', #221, 'mechanical' ) ;
#10 = ADVANCED_FACE ( 'NONE', ( #257 ), #75, .F. ) ;
#11 = CIRCLE ( 'NONE', #225, 1.700000000000007061 ) ;
#12 = FACE_OUTER_BOUND ( 'NONE', #241, .T. ) ;
#13 = CARTESIAN_POINT ( 'NONE',  ( 7.862681637631536068E-14, -3.000000000000007994, 22.51961524227064615 ) ) ;
#14 = CC_DESIGN_PERSON_AND_ORGANIZATION_ASSIGNMENT ( #93, #52, ( #45 ) ) ;
#15 = ORIENTED_EDGE ( 'NONE', *, *, #59, .T. ) ;
#16 = CC_DESIGN_SECURITY_CLASSIFICATION ( #31, ( #144 ) ) ;
#17 = DATE_AND_TIME ( #250, #87 ) ;
#18 = ORIENTED_EDGE ( 'NONE', *, *, #103, .F. ) ;
#19 = EDGE_LOOP ( 'NONE', ( #72 ) ) ;
#20 = DIRECTION ( 'NONE',  ( 0.0000000000000000000, -1.000000000000000000, 0.0000000000000000000 ) ) ;
#21 = CYLINDRICAL_SURFACE ( 'NONE', #113, 2.999999999999998224 ) ;
#22 = PERSON_AND_ORGANIZATION_ROLE ( 'classification_officer' ) ;
#23 = DIRECTION ( 'NONE',  ( 3.491481338843133355E-15, -4.327174794786742882E-16, 1.000000000000000000 ) ) ;
#24 = FACE_OUTER_BOUND ( 'NONE', #239, .T. ) ;
#25 = CARTESIAN_POINT ( 'NONE',  ( 4.888073874380386697E-14, 2.249639673992780664E-32, 14.00000000000000000 ) ) ;
#26 = APPROVAL ( #33, 'UNSPECIFIED' ) ;
#27 = VERTEX_POINT ( 'NONE', #46 ) ;
#28 = AXIS2_PLACEMENT_3D ( 'NONE', #254, #232, #182 ) ;
#29 = CC_DESIGN_DATE_AND_TIME_ASSIGNMENT ( #211, #40, ( #31 ) ) ;
#30 = DESIGN_CONTEXT ( 'detailed design', #44, 'design' ) ;
#31 = SECURITY_CLASSIFICATION ( '', '', #179 ) ;
#32 = VERTEX_POINT ( 'NONE', #65 ) ;
#33 = APPROVAL_STATUS ( 'not_yet_approved' ) ;
#34 = EDGE_LOOP ( 'NONE', ( #15 ) ) ;
#35 = CARTESIAN_POINT ( 'NONE',  ( 4.888073874380386697E-14, -1.700000000000009948, 14.00000000000000000 ) ) ;
#36 = CONICAL_SURFACE ( 'NONE', #154, 2.300000000000001599, 0.7853981633974485010 ) ;
#37 = ADVANCED_FACE ( 'NONE', ( #12 ), #123, .T. ) ;
#38 = EDGE_LOOP ( 'NONE', ( #118 ) ) ;
#39 = CARTESIAN_POINT ( 'NONE',  ( 8.165052791259286501E-14, -1.011937547635499955E-14, 23.38564064605510140 ) ) ;
#40 = DATE_TIME_ROLE ( 'classification_date' ) ;
#41 = DIRECTION ( 'NONE',  ( -3.491481338843133355E-15, 4.327174794786742882E-16, -1.000000000000000000 ) ) ;
#42 = DIRECTION ( 'NONE',  ( 4.275831445896958607E-31, 1.000000000000000000, 1.224646799147353207E-16 ) ) ;
#43 = FACE_OUTER_BOUND ( 'NONE', #157, .T. ) ;
#44 = APPLICATION_CONTEXT ( 'configuration controlled 3d designs of mechanical parts and assemblies' ) ;
#45 = PRODUCT ( '43313', '43313', '', ( #9 ) ) ;
#46 = CARTESIAN_POINT ( 'NONE',  ( 2.160351977419208149E-15, -1.700000000000003730, 0.6187493982525533731 ) ) ;
#47 = ADVANCED_FACE ( 'NONE', ( #57, #140 ), #36, .T. ) ;
#48 = MANIFOLD_SOLID_BREP ( 'Corps-Déplacer/Copier1[2]', #229 ) ;
#49 = VERTEX_POINT ( 'NONE', #13 ) ;
#50 = AXIS2_PLACEMENT_3D ( 'NONE', #126, #248, #199 ) ;
#51 = EDGE_CURVE ( 'NONE', #32, #32, #175, .T. ) ;
#52 = PERSON_AND_ORGANIZATION_ROLE ( 'design_owner' ) ;
#53 = ORIENTED_EDGE ( 'NONE', *, *, #95, .F. ) ;
#54 = COORDINATED_UNIVERSAL_TIME_OFFSET ( 1, 0, .AHEAD. ) ;
#55 = AXIS2_PLACEMENT_3D ( 'NONE', #39, #23, #20 ) ;
#56 = APPROVAL_STATUS ( 'not_yet_approved' ) ;
#57 = FACE_OUTER_BOUND ( 'NONE', #160, .T. ) ;
#58 = DIRECTION ( 'NONE',  ( 3.491481338843133355E-15, -4.327174794786742882E-16, 1.000000000000000000 ) ) ;
#59 = EDGE_CURVE ( 'NONE', #88, #88, #94, .T. ) ;
#60 = DIRECTION ( 'NONE',  ( 3.491481338843133355E-15, -1.224646799147353207E-16, 1.000000000000000000 ) ) ;
#61 = DIRECTION ( 'NONE',  ( -3.491481338843133355E-15, 4.327174794786742882E-16, -1.000000000000000000 ) ) ;
#62 = CARTESIAN_POINT ( 'NONE',  ( 6.982962677686266711E-14, -8.673617379884035472E-15, 20.00000000000000000 ) ) ;
#63 = AXIS2_PLACEMENT_3D ( 'NONE', #62, #61, #245 ) ;
#64 = CARTESIAN_POINT ( 'NONE',  ( 4.888073874380386697E-14, -6.058044712701440824E-15, 14.00000000000000000 ) ) ;
#65 = CARTESIAN_POINT ( 'NONE',  ( 2.140278060710840684E-13, 2.999999999999993783, 61.29999999999999716 ) ) ;
#66 = AXIS2_PLACEMENT_3D ( 'NONE', #1, #147, #218 ) ;
#67 = PERSON_AND_ORGANIZATION ( #251, #167 ) ;
#68 = APPROVAL ( #56, 'UNSPECIFIED' ) ;
#69 = CARTESIAN_POINT ( 'NONE',  ( 4.888073874380386697E-14, -1.700000000000009948, 14.00000000000000000 ) ) ;
#70 = ORIENTED_EDGE ( 'NONE', *, *, #103, .T. ) ;
#71 = DATE_AND_TIME ( #115, #185 ) ;
#72 = ORIENTED_EDGE ( 'NONE', *, *, #197, .T. ) ;
#73 = APPROVAL ( #256, 'UNSPECIFIED' ) ;
#74 = COORDINATED_UNIVERSAL_TIME_OFFSET ( 1, 0, .AHEAD. ) ;
#75 = PLANE ( 'NONE',  #117 ) ;
#76 = CC_DESIGN_APPROVAL ( #68, ( #31 ) ) ;
#77 = EDGE_LOOP ( 'NONE', ( #53 ) ) ;
#78 = APPROVAL_DATE_TIME ( #120, #68 ) ;
#79 = ADVANCED_FACE ( 'NONE', ( #122, #85 ), #21, .T. ) ;
#80 = CARTESIAN_POINT ( 'NONE',  ( 0.0000000000000000000, 0.0000000000000000000, 0.0000000000000000000 ) ) ;
#81 = PERSON_AND_ORGANIZATION_ROLE ( 'design_supplier' ) ;
#82 = FACE_OUTER_BOUND ( 'NONE', #210, .T. ) ;
#83 = DIRECTION ( 'NONE',  ( 0.0000000000000000000, -1.000000000000000000, 0.0000000000000000000 ) ) ;
#84 = CC_DESIGN_PERSON_AND_ORGANIZATION_ASSIGNMENT ( #235, #81, ( #144 ) ) ;
#85 = FACE_OUTER_BOUND ( 'NONE', #116, .T. ) ;
#86 = DIRECTION ( 'NONE',  ( 1.510825004591027855E-30, 1.000000000000000000, 4.327174794786743375E-16 ) ) ;
#87 = LOCAL_TIME ( 13, 35, 54.00000000000000000, #224 ) ;
#88 = VERTEX_POINT ( 'NONE', #69 ) ;
#89 = COORDINATED_UNIVERSAL_TIME_OFFSET ( 1, 0, .AHEAD. ) ;
#90 = CIRCLE ( 'NONE', #176, 1.700000000000003730 ) ;
#91 = CIRCLE ( 'NONE', #50, 2.300000000000001599 ) ;
#92 = DIRECTION ( 'NONE',  ( -3.491481338843133355E-15, 1.224646799147353207E-16, -1.000000000000000000 ) ) ;
#93 = PERSON_AND_ORGANIZATION ( #251, #167 ) ;
#94 = CIRCLE ( 'NONE', #244, 1.700000000000003730 ) ;
#95 = EDGE_CURVE ( 'NONE', #134, #134, #11, .T. ) ;
#96 = EDGE_LOOP ( 'NONE', ( #194 ) ) ;
#97 = EDGE_LOOP ( 'NONE', ( #70 ) ) ;
#98 = APPROVAL_ROLE ( '' ) ;
#99 = CARTESIAN_POINT ( 'NONE',  ( 3.812385842504470444E-15, -1.337204947137066162E-16, 1.091910702798619459 ) ) ;
#100 = DIRECTION ( 'NONE',  ( 0.0000000000000000000, 1.000000000000000000, 0.0000000000000000000 ) ) ;
#101 = APPROVAL_PERSON_ORGANIZATION ( #67, #73, #152 ) ;
#102 = CALENDAR_DATE ( 2021, 13, 10 ) ;
#103 = EDGE_CURVE ( 'NONE', #150, #150, #259, .T. ) ;
#104 = CARTESIAN_POINT ( 'NONE',  ( 0.0000000000000000000, 0.0000000000000000000, 0.0000000000000000000 ) ) ;
#105 = FACE_OUTER_BOUND ( 'NONE', #142, .T. ) ;
#106 = PERSON_AND_ORGANIZATION_ROLE ( 'creator' ) ;
#107 = CARTESIAN_POINT ( 'NONE',  ( 2.164718430082742680E-13, 1.724723750061125849E-32, 62.00000000000000000 ) ) ;
#108 = DIRECTION ( 'NONE',  ( -3.491481338843133355E-15, 4.327174794786742882E-16, -1.000000000000000000 ) ) ;
#109 = CARTESIAN_POINT ( 'NONE',  ( 6.982962677686266711E-14, 1.699999999999998401, 20.00000000000000000 ) ) ;
#110 = CC_DESIGN_APPROVAL ( #73, ( #144 ) ) ;
#111 = ADVANCED_FACE ( 'NONE', ( #143, #247 ), #220, .T. ) ;
#112 = PERSON_AND_ORGANIZATION ( #251, #167 ) ;
#113 = AXIS2_PLACEMENT_3D ( 'NONE', #104, #149, #4 ) ;
#114 = EDGE_LOOP ( 'NONE', ( #192 ) ) ;
#115 = CALENDAR_DATE ( 2021, 13, 10 ) ;
#116 = EDGE_LOOP ( 'NONE', ( #234 ) ) ;
#117 = AXIS2_PLACEMENT_3D ( 'NONE', #158, #187, #193 ) ;
#118 = ORIENTED_EDGE ( 'NONE', *, *, #156, .F. ) ;
#119 = EDGE_LOOP ( 'NONE', ( #262 ) ) ;
#120 = DATE_AND_TIME ( #242, #261 ) ;
#121 = ADVANCED_FACE ( 'NONE', ( #263 ), #217, .T. ) ;
#122 = FACE_OUTER_BOUND ( 'NONE', #19, .T. ) ;
#123 = CONICAL_SURFACE ( 'NONE', #137, 2.999999999999993783, 1.221730476396026388 ) ;
#124 = APPROVAL_PERSON_ORGANIZATION ( #236, #68, #98 ) ;
#125 = FACE_OUTER_BOUND ( 'NONE', #97, .T. ) ;
#126 = CARTESIAN_POINT ( 'NONE',  ( 2.164718430082742680E-13, -7.592810154713590230E-15, 62.00000000000000000 ) ) ;
#127 = DIRECTION ( 'NONE',  ( -3.491481338843133355E-15, 1.224646799147353207E-16, -1.000000000000000000 ) ) ;
#128 = CIRCLE ( 'NONE', #205, 1.700000000000003730 ) ;
#129 = CARTESIAN_POINT ( 'NONE',  ( 0.0000000000000000000, 0.0000000000000000000, 0.0000000000000000000 ) ) ;
#130 = DATE_AND_TIME ( #133, #226 ) ;
#131 = CARTESIAN_POINT ( 'NONE',  ( 7.157536744628425272E-14, 1.833974596215559139, 20.50000000000000355 ) ) ;
#132 = ADVANCED_FACE ( 'NONE', ( #219, #105 ), #252, .T. ) ;
#133 = CALENDAR_DATE ( 2021, 13, 10 ) ;
#134 = VERTEX_POINT ( 'NONE', #109 ) ;
#135 = ORIENTED_EDGE ( 'NONE', *, *, #197, .F. ) ;
#136 = PERSON_AND_ORGANIZATION ( #251, #167 ) ;
#137 = AXIS2_PLACEMENT_3D ( 'NONE', #99, #174, #258 ) ;
#138 = EDGE_LOOP ( 'NONE', ( #18 ) ) ;
#139 = COORDINATED_UNIVERSAL_TIME_OFFSET ( 1, 0, .AHEAD. ) ;
#140 = FACE_BOUND ( 'NONE', #96, .T. ) ;
#141 = SHAPE_DEFINITION_REPRESENTATION ( #165, #200 ) ;
#142 = EDGE_LOOP ( 'NONE', ( #135 ) ) ;
#143 = FACE_OUTER_BOUND ( 'NONE', #119, .T. ) ;
#144 = PRODUCT_DEFINITION_FORMATION_WITH_SPECIFIED_SOURCE ( 'ANY', '', #45, .NOT_KNOWN. ) ;
#145 = DIRECTION ( 'NONE',  ( -3.491481338843133355E-15, 1.224646799147353207E-16, -1.000000000000000000 ) ) ;
#146 = PLANE ( 'NONE',  #206 ) ;
#147 = DIRECTION ( 'NONE',  ( -3.491481338843133355E-15, 4.327174794786742882E-16, -1.000000000000000000 ) ) ;
#148 = TOROIDAL_SURFACE ( 'NONE', #63, 2.700000000000006395, 1.000000000000001332 ) ;
#149 = DIRECTION ( 'NONE',  ( -3.491481338843133355E-15, 1.224646799147353207E-16, -1.000000000000000000 ) ) ;
#150 = VERTEX_POINT ( 'NONE', #131 ) ;
#151 = ADVANCED_FACE ( 'NONE', ( #82, #43 ), #164, .T. ) ;
#152 = APPROVAL_ROLE ( '' ) ;
#153 =( LENGTH_UNIT ( ) NAMED_UNIT ( * ) SI_UNIT ( .MILLI., .METRE. ) );
#154 = AXIS2_PLACEMENT_3D ( 'NONE', #215, #92, #100 ) ;
#155 = ORIENTED_EDGE ( 'NONE', *, *, #156, .T. ) ;
#156 = EDGE_CURVE ( 'NONE', #27, #27, #90, .T. ) ;
#157 = EDGE_LOOP ( 'NONE', ( #177 ) ) ;
#158 = CARTESIAN_POINT ( 'NONE',  ( 4.888073874380386697E-14, 2.249639673992780664E-32, 14.00000000000000000 ) ) ;
#159 = CIRCLE ( 'NONE', #184, 2.999999999999998224 ) ;
#160 = EDGE_LOOP ( 'NONE', ( #214 ) ) ;
#161 = CARTESIAN_POINT ( 'NONE',  ( 2.160351977419208938E-15, -7.577494700443407213E-17, 0.6187493982525535952 ) ) ;
#162 = PRODUCT_DEFINITION ( 'UNKNOWN', '', #144, #30 ) ;
#163 = FACE_OUTER_BOUND ( 'NONE', #77, .T. ) ;
#164 = CYLINDRICAL_SURFACE ( 'NONE', #237, 1.700000000000003730 ) ;
#165 = PRODUCT_DEFINITION_SHAPE ( 'NONE', 'NONE',  #162 ) ;
#166 = DIRECTION ( 'NONE',  ( 0.0000000000000000000, -1.000000000000000000, 0.0000000000000000000 ) ) ;
#167 = ORGANIZATION ( 'UNSPECIFIED', 'UNSPECIFIED', '' ) ;
#168 = DIRECTION ( 'NONE',  ( 1.000000000000000000, 0.0000000000000000000, 0.0000000000000000000 ) ) ;
#169 = DATE_TIME_ROLE ( 'creation_date' ) ;
#170 = CC_DESIGN_DATE_AND_TIME_ASSIGNMENT ( #17, #169, ( #162 ) ) ;
#171 = APPROVAL_PERSON_ORGANIZATION ( #112, #26, #222 ) ;
#172 = ORIENTED_EDGE ( 'NONE', *, *, #95, .T. ) ;
#173 = EDGE_CURVE ( 'NONE', #8, #8, #128, .T. ) ;
#174 = DIRECTION ( 'NONE',  ( 3.491481338843133355E-15, -1.224646799147353207E-16, 1.000000000000000000 ) ) ;
#175 = CIRCLE ( 'NONE', #28, 3.000000000000001332 ) ;
#176 = AXIS2_PLACEMENT_3D ( 'NONE', #161, #243, #183 ) ;
#177 = ORIENTED_EDGE ( 'NONE', *, *, #59, .F. ) ;
#178 = DIRECTION ( 'NONE',  ( 0.0000000000000000000, 1.000000000000000000, 0.0000000000000000000 ) ) ;
#179 = SECURITY_CLASSIFICATION_LEVEL ( 'unclassified' ) ;
#180 = DIRECTION ( 'NONE',  ( -3.491481338843133355E-15, 1.224646799147353207E-16, -1.000000000000000000 ) ) ;
#181 = AXIS2_PLACEMENT_3D ( 'NONE', #25, #60, #249 ) ;
#182 = DIRECTION ( 'NONE',  ( 0.0000000000000000000, 1.000000000000000000, 0.0000000000000000000 ) ) ;
#183 = DIRECTION ( 'NONE',  ( -4.531599869146427770E-31, -1.000000000000000000, -1.275531967630002534E-16 ) ) ;
#184 = AXIS2_PLACEMENT_3D ( 'NONE', #6, #58, #166 ) ;
#185 = LOCAL_TIME ( 13, 35, 54.00000000000000000, #89 ) ;
#186 =( NAMED_UNIT ( * ) SI_UNIT ( $, .STERADIAN. ) SOLID_ANGLE_UNIT ( ) );
#187 = DIRECTION ( 'NONE',  ( 3.491481338843133355E-15, -1.224646799147353207E-16, 1.000000000000000000 ) ) ;
#188 = CARTESIAN_POINT ( 'NONE',  ( 0.0000000000000000000, 0.0000000000000000000, 0.0000000000000000000 ) ) ;
#189 = ORIENTED_EDGE ( 'NONE', *, *, #260, .F. ) ;
#190 = PERSON_AND_ORGANIZATION_ROLE ( 'creator' ) ;
#191 = CLOSED_SHELL ( 'NONE', ( #79, #47, #246, #151, #132, #227, #10 ) ) ;
#192 = ORIENTED_EDGE ( 'NONE', *, *, #173, .F. ) ;
#193 = DIRECTION ( 'NONE',  ( -4.275831445896958607E-31, -1.000000000000000000, -1.224646799147353207E-16 ) ) ;
#194 = ORIENTED_EDGE ( 'NONE', *, *, #260, .T. ) ;
#195 = CC_DESIGN_APPROVAL ( #26, ( #162 ) ) ;
#196 = CARTESIAN_POINT ( 'NONE',  ( 6.982962677686266711E-14, -8.654349589573485764E-15, 20.00000000000000000 ) ) ;
#197 = EDGE_CURVE ( 'NONE', #49, #49, #159, .T. ) ;
#198 = CARTESIAN_POINT ( 'NONE',  ( 4.888073874380386697E-14, -6.058044712701440824E-15, 14.00000000000000000 ) ) ;
#199 = DIRECTION ( 'NONE',  ( 0.0000000000000000000, 1.000000000000000000, 0.0000000000000000000 ) ) ;
#200 = ADVANCED_BREP_SHAPE_REPRESENTATION ( '43313', ( #213, #48, #3 ), #238 ) ;
#201 = DIRECTION ( 'NONE',  ( 0.0000000000000000000, -1.000000000000000000, 0.0000000000000000000 ) ) ;
#202 = DIRECTION ( 'NONE',  ( -3.491481338843133355E-15, 4.327174794786742882E-16, -1.000000000000000000 ) ) ;
#203 = APPROVAL_DATE_TIME ( #130, #73 ) ;
#204 =( NAMED_UNIT ( * ) PLANE_ANGLE_UNIT ( ) SI_UNIT ( $, .RADIAN. ) );
#205 = AXIS2_PLACEMENT_3D ( 'NONE', #198, #127, #201 ) ;
#206 = AXIS2_PLACEMENT_3D ( 'NONE', #107, #145, #42 ) ;
#207 = CARTESIAN_POINT ( 'NONE',  ( 2.164718430082742680E-13, 2.299999999999994049, 62.00000000000000000 ) ) ;
#208 = APPLICATION_PROTOCOL_DEFINITION ( 'international standard', 'config_control_design', 1994, #221 ) ;
#209 = APPROVAL_DATE_TIME ( #71, #26 ) ;
#210 = EDGE_LOOP ( 'NONE', ( #172 ) ) ;
#211 = DATE_AND_TIME ( #102, #230 ) ;
#212 = AXIS2_PLACEMENT_3D ( 'NONE', #129, #202, #86 ) ;
#213 = MANIFOLD_SOLID_BREP ( 'Corps-Déplacer/Copier1[1]', #191 ) ;
#214 = ORIENTED_EDGE ( 'NONE', *, *, #51, .F. ) ;
#215 = CARTESIAN_POINT ( 'NONE',  ( 2.164718430082742680E-13, -7.592810154713590230E-15, 62.00000000000000000 ) ) ;
#216 = PRODUCT_RELATED_PRODUCT_CATEGORY ( 'detail', '', ( #45 ) ) ;
#217 = PLANE ( 'NONE',  #181 ) ;
#218 = DIRECTION ( 'NONE',  ( 0.0000000000000000000, 1.000000000000000000, 0.0000000000000000000 ) ) ;
#219 = FACE_BOUND ( 'NONE', #138, .T. ) ;
#220 = CYLINDRICAL_SURFACE ( 'NONE', #212, 1.700000000000003730 ) ;
#221 = APPLICATION_CONTEXT ( 'configuration controlled 3d designs of mechanical parts and assemblies' ) ;
#222 = APPROVAL_ROLE ( '' ) ;
#223 = UNCERTAINTY_MEASURE_WITH_UNIT (LENGTH_MEASURE( 1.000000000000000082E-05 ), #153, 'distance_accuracy_value', 'NONE');
#224 = COORDINATED_UNIVERSAL_TIME_OFFSET ( 1, 0, .AHEAD. ) ;
#225 = AXIS2_PLACEMENT_3D ( 'NONE', #196, #41, #178 ) ;
#226 = LOCAL_TIME ( 13, 35, 54.00000000000000000, #74 ) ;
#227 = ADVANCED_FACE ( 'NONE', ( #163, #125 ), #148, .F. ) ;
#228 = PERSON_AND_ORGANIZATION ( #251, #167 ) ;
#229 = CLOSED_SHELL ( 'NONE', ( #37, #111, #121 ) ) ;
#230 = LOCAL_TIME ( 13, 35, 54.00000000000000000, #54 ) ;
#231 = DIRECTION ( 'NONE',  ( 0.0000000000000000000, 0.0000000000000000000, 1.000000000000000000 ) ) ;
#232 = DIRECTION ( 'NONE',  ( -3.491481338843133355E-15, 1.224646799147353207E-16, -1.000000000000000000 ) ) ;
#233 = VERTEX_POINT ( 'NONE', #207 ) ;
#234 = ORIENTED_EDGE ( 'NONE', *, *, #51, .T. ) ;
#235 = PERSON_AND_ORGANIZATION ( #251, #167 ) ;
#236 = PERSON_AND_ORGANIZATION ( #251, #167 ) ;
#237 = AXIS2_PLACEMENT_3D ( 'NONE', #80, #108, #5 ) ;
#238 =( GEOMETRIC_REPRESENTATION_CONTEXT ( 3 ) GLOBAL_UNCERTAINTY_ASSIGNED_CONTEXT ( ( #223 ) ) GLOBAL_UNIT_ASSIGNED_CONTEXT ( ( #153, #204, #186 ) ) REPRESENTATION_CONTEXT ( 'NONE', 'WORKASPACE' ) );
#239 = EDGE_LOOP ( 'NONE', ( #189 ) ) ;
#240 = PERSON_AND_ORGANIZATION ( #251, #167 ) ;
#241 = EDGE_LOOP ( 'NONE', ( #155 ) ) ;
#242 = CALENDAR_DATE ( 2021, 13, 10 ) ;
#243 = DIRECTION ( 'NONE',  ( -3.491481338843133355E-15, 1.224646799147353207E-16, -1.000000000000000000 ) ) ;
#244 = AXIS2_PLACEMENT_3D ( 'NONE', #64, #180, #83 ) ;
#245 = DIRECTION ( 'NONE',  ( 1.510825004591027855E-30, 1.000000000000000000, 4.327174794786742882E-16 ) ) ;
#246 = ADVANCED_FACE ( 'NONE', ( #24 ), #146, .F. ) ;
#247 = FACE_OUTER_BOUND ( 'NONE', #38, .T. ) ;
#248 = DIRECTION ( 'NONE',  ( -3.491481338843133355E-15, 1.224646799147353207E-16, -1.000000000000000000 ) ) ;
#249 = DIRECTION ( 'NONE',  ( -4.275831445896958607E-31, -1.000000000000000000, -1.224646799147353207E-16 ) ) ;
#250 = CALENDAR_DATE ( 2021, 13, 10 ) ;
#251 = PERSON ( 'UNSPECIFIED', 'UNSPECIFIED', 'UNSPECIFIED', ('UNSPECIFIED'), ('UNSPECIFIED'), ('UNSPECIFIED') ) ;
#252 = CONICAL_SURFACE ( 'NONE', #55, 3.500000000000008438, 0.5235987755983001479 ) ;
#253 = CC_DESIGN_PERSON_AND_ORGANIZATION_ASSIGNMENT ( #136, #22, ( #31 ) ) ;
#254 = CARTESIAN_POINT ( 'NONE',  ( 2.140278060710840684E-13, -7.507084878773275941E-15, 61.29999999999999716 ) ) ;
#255 = APPLICATION_PROTOCOL_DEFINITION ( 'international standard', 'config_control_design', 1994, #44 ) ;
#256 = APPROVAL_STATUS ( 'not_yet_approved' ) ;
#257 = FACE_OUTER_BOUND ( 'NONE', #34, .T. ) ;
#258 = DIRECTION ( 'NONE',  ( -5.135813185032639159E-31, -1.000000000000000000, -1.445602896647342121E-16 ) ) ;
#259 = CIRCLE ( 'NONE', #66, 1.833974596215568020 ) ;
#260 = EDGE_CURVE ( 'NONE', #233, #233, #91, .T. ) ;
#261 = LOCAL_TIME ( 13, 35, 54.00000000000000000, #139 ) ;
#262 = ORIENTED_EDGE ( 'NONE', *, *, #173, .T. ) ;
#263 = FACE_OUTER_BOUND ( 'NONE', #114, .T. ) ;
ENDSEC;
END-ISO-10303-21;
