ISO-10303-21;
HEADER;
FILE_DESCRIPTION (( 'STEP AP203' ),
    '1' );
FILE_NAME ('43312.step',
    '2021-10-13T11:35:53',
    ( '' ),
    ( '' ),
    'SwSTEP 2.0',
    'SolidWorks 2019',
    '' );
FILE_SCHEMA (( 'CONFIG_CONTROL_DESIGN' ));
ENDSEC;

DATA;
#1 = ADVANCED_FACE ( 'NONE', ( #263, #166 ), #134, .T. ) ;
#2 = DIRECTION ( 'NONE',  ( -4.275831445896958607E-31, -1.000000000000000000, -1.224646799147353207E-16 ) ) ;
#3 = SHAPE_DEFINITION_REPRESENTATION ( #49, #209 ) ;
#4 = EDGE_LOOP ( 'NONE', ( #68 ) ) ;
#5 = CARTESIAN_POINT ( 'NONE',  ( 2.164718430082742680E-13, 1.724723750061125849E-32, 62.00000000000000000 ) ) ;
#6 = FACE_OUTER_BOUND ( 'NONE', #243, .T. ) ;
#7 = AXIS2_PLACEMENT_3D ( 'NONE', #91, #112, #9 ) ;
#8 = VERTEX_POINT ( 'NONE', #90 ) ;
#9 = DIRECTION ( 'NONE',  ( 0.0000000000000000000, -1.000000000000000000, 0.0000000000000000000 ) ) ;
#10 = CIRCLE ( 'NONE', #156, 1.650000000000007017 ) ;
#11 = PLANE ( 'NONE',  #233 ) ;
#12 = CC_DESIGN_DATE_AND_TIME_ASSIGNMENT ( #182, #203, ( #239 ) ) ;
#13 = AXIS2_PLACEMENT_3D ( 'NONE', #151, #152, #51 ) ;
#14 = CARTESIAN_POINT ( 'NONE',  ( 0.0000000000000000000, 0.0000000000000000000, 0.0000000000000000000 ) ) ;
#15 = CARTESIAN_POINT ( 'NONE',  ( 0.0000000000000000000, 0.0000000000000000000, 0.0000000000000000000 ) ) ;
#16 = VERTEX_POINT ( 'NONE', #258 ) ;
#17 = EDGE_CURVE ( 'NONE', #135, #135, #21, .T. ) ;
#18 = AXIS2_PLACEMENT_3D ( 'NONE', #15, #208, #35 ) ;
#19 = DATE_AND_TIME ( #257, #119 ) ;
#20 = PRODUCT_RELATED_PRODUCT_CATEGORY ( 'detail', '', ( #253 ) ) ;
#21 = CIRCLE ( 'NONE', #137, 3.000000000000001332 ) ;
#22 = PERSON_AND_ORGANIZATION ( #107, #95 ) ;
#23 = CIRCLE ( 'NONE', #13, 2.300000000000001599 ) ;
#24 = DATE_AND_TIME ( #159, #64 ) ;
#25 = EDGE_LOOP ( 'NONE', ( #48 ) ) ;
#26 = AXIS2_PLACEMENT_3D ( 'NONE', #5, #87, #248 ) ;
#27 = ORIENTED_EDGE ( 'NONE', *, *, #206, .F. ) ;
#28 = ORIENTED_EDGE ( 'NONE', *, *, #81, .T. ) ;
#29 = FACE_OUTER_BOUND ( 'NONE', #70, .T. ) ;
#30 = CC_DESIGN_PERSON_AND_ORGANIZATION_ASSIGNMENT ( #83, #118, ( #253 ) ) ;
#31 = EDGE_LOOP ( 'NONE', ( #128 ) ) ;
#32 = CIRCLE ( 'NONE', #256, 1.650000000000003908 ) ;
#33 = CARTESIAN_POINT ( 'NONE',  ( 4.888073874380386697E-14, -6.058044712701440824E-15, 14.00000000000000000 ) ) ;
#34 = ADVANCED_FACE ( 'NONE', ( #6 ), #165, .F. ) ;
#35 = DIRECTION ( 'NONE',  ( 1.510825004591027679E-30, 1.000000000000000000, 4.327174794786742882E-16 ) ) ;
#36 = DIRECTION ( 'NONE',  ( 0.0000000000000000000, 1.000000000000000000, 0.0000000000000000000 ) ) ;
#37 = LOCAL_TIME ( 13, 35, 53.00000000000000000, #193 ) ;
#38 = APPROVAL_PERSON_ORGANIZATION ( #174, #197, #121 ) ;
#39 = DIRECTION ( 'NONE',  ( -3.491481338843133355E-15, 4.327174794786742882E-16, -1.000000000000000000 ) ) ;
#40 = CARTESIAN_POINT ( 'NONE',  ( 2.140278060710840684E-13, 2.999999999999993783, 61.29999999999999716 ) ) ;
#41 =( GEOMETRIC_REPRESENTATION_CONTEXT ( 3 ) GLOBAL_UNCERTAINTY_ASSIGNED_CONTEXT ( ( #231 ) ) GLOBAL_UNIT_ASSIGNED_CONTEXT ( ( #259, #57, #178 ) ) REPRESENTATION_CONTEXT ( 'NONE', 'WORKASPACE' ) );
#42 = APPROVAL_STATUS ( 'not_yet_approved' ) ;
#43 = SECURITY_CLASSIFICATION_LEVEL ( 'unclassified' ) ;
#44 = PLANE ( 'NONE',  #46 ) ;
#45 = MANIFOLD_SOLID_BREP ( 'Corps-Déplacer/Copier1[1]', #88 ) ;
#46 = AXIS2_PLACEMENT_3D ( 'NONE', #199, #205, #2 ) ;
#47 = ORIENTED_EDGE ( 'NONE', *, *, #50, .T. ) ;
#48 = ORIENTED_EDGE ( 'NONE', *, *, #50, .F. ) ;
#49 = PRODUCT_DEFINITION_SHAPE ( 'NONE', 'NONE',  #84 ) ;
#50 = EDGE_CURVE ( 'NONE', #211, #211, #58, .T. ) ;
#51 = DIRECTION ( 'NONE',  ( 0.0000000000000000000, 1.000000000000000000, 0.0000000000000000000 ) ) ;
#52 = FACE_OUTER_BOUND ( 'NONE', #4, .T. ) ;
#53 = CARTESIAN_POINT ( 'NONE',  ( 7.157536744628424009E-14, -8.870708329312824486E-15, 20.50000000000000000 ) ) ;
#54 = AXIS2_PLACEMENT_3D ( 'NONE', #53, #75, #36 ) ;
#55 = FACE_OUTER_BOUND ( 'NONE', #185, .T. ) ;
#56 = COORDINATED_UNIVERSAL_TIME_OFFSET ( 1, 0, .AHEAD. ) ;
#57 =( NAMED_UNIT ( * ) PLANE_ANGLE_UNIT ( ) SI_UNIT ( $, .RADIAN. ) );
#58 = CIRCLE ( 'NONE', #237, 1.650000000000003908 ) ;
#59 = CC_DESIGN_PERSON_AND_ORGANIZATION_ASSIGNMENT ( #80, #62, ( #145 ) ) ;
#60 = DATE_AND_TIME ( #82, #113 ) ;
#61 = COORDINATED_UNIVERSAL_TIME_OFFSET ( 1, 0, .AHEAD. ) ;
#62 = PERSON_AND_ORGANIZATION_ROLE ( 'design_supplier' ) ;
#63 = DIRECTION ( 'NONE',  ( 0.0000000000000000000, 1.000000000000000000, 0.0000000000000000000 ) ) ;
#64 = LOCAL_TIME ( 13, 35, 53.00000000000000000, #86 ) ;
#65 = ADVANCED_FACE ( 'NONE', ( #230 ), #189, .T. ) ;
#66 = EDGE_LOOP ( 'NONE', ( #200 ) ) ;
#67 = APPLICATION_CONTEXT ( 'configuration controlled 3d designs of mechanical parts and assemblies' ) ;
#68 = ORIENTED_EDGE ( 'NONE', *, *, #150, .F. ) ;
#69 = ADVANCED_FACE ( 'NONE', ( #29 ), #44, .T. ) ;
#70 = EDGE_LOOP ( 'NONE', ( #105 ) ) ;
#71 = DIRECTION ( 'NONE',  ( 0.0000000000000000000, -1.000000000000000000, 0.0000000000000000000 ) ) ;
#72 = CYLINDRICAL_SURFACE ( 'NONE', #228, 2.999999999999998224 ) ;
#73 = CYLINDRICAL_SURFACE ( 'NONE', #168, 1.650000000000003908 ) ;
#74 = AXIS2_PLACEMENT_3D ( 'NONE', #188, #210, #133 ) ;
#75 = DIRECTION ( 'NONE',  ( -3.491481338843133355E-15, 4.327174794786742882E-16, -1.000000000000000000 ) ) ;
#76 = FACE_OUTER_BOUND ( 'NONE', #25, .T. ) ;
#77 = CC_DESIGN_PERSON_AND_ORGANIZATION_ASSIGNMENT ( #22, #140, ( #239 ) ) ;
#78 = FACE_OUTER_BOUND ( 'NONE', #223, .T. ) ;
#79 = APPROVAL_PERSON_ORGANIZATION ( #120, #261, #154 ) ;
#80 = PERSON_AND_ORGANIZATION ( #107, #95 ) ;
#81 = EDGE_CURVE ( 'NONE', #192, #192, #123, .T. ) ;
#82 = CALENDAR_DATE ( 2021, 13, 10 ) ;
#83 = PERSON_AND_ORGANIZATION ( #107, #95 ) ;
#84 = PRODUCT_DEFINITION ( 'UNKNOWN', '', #145, #122 ) ;
#85 = CARTESIAN_POINT ( 'NONE',  ( 4.888073874380386697E-14, -6.058044712701440824E-15, 14.00000000000000000 ) ) ;
#86 = COORDINATED_UNIVERSAL_TIME_OFFSET ( 1, 0, .AHEAD. ) ;
#87 = DIRECTION ( 'NONE',  ( -3.491481338843133355E-15, 1.224646799147353207E-16, -1.000000000000000000 ) ) ;
#88 = CLOSED_SHELL ( 'NONE', ( #254, #160, #34, #132, #1, #173, #96 ) ) ;
#89 = EDGE_LOOP ( 'NONE', ( #180 ) ) ;
#90 = CARTESIAN_POINT ( 'NONE',  ( 4.888073874380386697E-14, -1.650000000000009903, 14.00000000000000000 ) ) ;
#91 = CARTESIAN_POINT ( 'NONE',  ( 7.892918752994308587E-14, -9.782105579453898336E-15, 22.60621778264908599 ) ) ;
#92 = FACE_OUTER_BOUND ( 'NONE', #66, .T. ) ;
#93 = DIRECTION ( 'NONE',  ( 0.0000000000000000000, 1.000000000000000000, 0.0000000000000000000 ) ) ;
#94 = FACE_OUTER_BOUND ( 'NONE', #163, .T. ) ;
#95 = ORGANIZATION ( 'UNSPECIFIED', 'UNSPECIFIED', '' ) ;
#96 = ADVANCED_FACE ( 'NONE', ( #78 ), #11, .F. ) ;
#97 = CARTESIAN_POINT ( 'NONE',  ( 0.0000000000000000000, 0.0000000000000000000, 0.0000000000000000000 ) ) ;
#98 = PERSON_AND_ORGANIZATION_ROLE ( 'creator' ) ;
#99 = APPLICATION_PROTOCOL_DEFINITION ( 'international standard', 'config_control_design', 1994, #115 ) ;
#100 = CC_DESIGN_APPROVAL ( #197, ( #145 ) ) ;
#101 = EDGE_CURVE ( 'NONE', #8, #8, #143, .T. ) ;
#102 = APPROVAL_DATE_TIME ( #24, #110 ) ;
#103 = ORIENTED_EDGE ( 'NONE', *, *, #17, .F. ) ;
#104 = CONICAL_SURFACE ( 'NONE', #260, 2.300000000000001599, 0.7853981633974485010 ) ;
#105 = ORIENTED_EDGE ( 'NONE', *, *, #101, .F. ) ;
#106 = AXIS2_PLACEMENT_3D ( 'NONE', #97, #138, #218 ) ;
#107 = PERSON ( 'UNSPECIFIED', 'UNSPECIFIED', 'UNSPECIFIED', ('UNSPECIFIED'), ('UNSPECIFIED'), ('UNSPECIFIED') ) ;
#108 = DIRECTION ( 'NONE',  ( 0.0000000000000000000, -1.000000000000000000, 0.0000000000000000000 ) ) ;
#109 = ORIENTED_EDGE ( 'NONE', *, *, #17, .T. ) ;
#110 = APPROVAL ( #164, 'UNSPECIFIED' ) ;
#111 = FACE_OUTER_BOUND ( 'NONE', #162, .T. ) ;
#112 = DIRECTION ( 'NONE',  ( 3.491481338843133355E-15, -4.327174794786742882E-16, 1.000000000000000000 ) ) ;
#113 = LOCAL_TIME ( 13, 35, 53.00000000000000000, #216 ) ;
#114 = CARTESIAN_POINT ( 'NONE',  ( 4.888073874380386697E-14, -1.650000000000009903, 14.00000000000000000 ) ) ;
#115 = APPLICATION_CONTEXT ( 'configuration controlled 3d designs of mechanical parts and assemblies' ) ;
#116 = CALENDAR_DATE ( 2021, 13, 10 ) ;
#117 = AXIS2_PLACEMENT_3D ( 'NONE', #33, #129, #136 ) ;
#118 = PERSON_AND_ORGANIZATION_ROLE ( 'design_owner' ) ;
#119 = LOCAL_TIME ( 13, 35, 53.00000000000000000, #56 ) ;
#120 = PERSON_AND_ORGANIZATION ( #107, #95 ) ;
#121 = APPROVAL_ROLE ( '' ) ;
#122 = DESIGN_CONTEXT ( 'detailed design', #67, 'design' ) ;
#123 = CIRCLE ( 'NONE', #7, 2.999999999999998224 ) ;
#124 = ORIENTED_EDGE ( 'NONE', *, *, #81, .F. ) ;
#125 = AXIS2_PLACEMENT_3D ( 'NONE', #202, #146, #108 ) ;
#126 = ORIENTED_EDGE ( 'NONE', *, *, #177, .F. ) ;
#127 = DIRECTION ( 'NONE',  ( -5.135813185032639159E-31, -1.000000000000000000, -1.445602896647342121E-16 ) ) ;
#128 = ORIENTED_EDGE ( 'NONE', *, *, #219, .T. ) ;
#129 = DIRECTION ( 'NONE',  ( -3.491481338843133355E-15, 1.224646799147353207E-16, -1.000000000000000000 ) ) ;
#130 = APPROVAL_PERSON_ORGANIZATION ( #221, #110, #198 ) ;
#131 = FACE_OUTER_BOUND ( 'NONE', #247, .T. ) ;
#132 = ADVANCED_FACE ( 'NONE', ( #92, #76 ), #73, .T. ) ;
#133 = DIRECTION ( 'NONE',  ( 1.510825004591027679E-30, 1.000000000000000000, 4.327174794786742882E-16 ) ) ;
#134 = CONICAL_SURFACE ( 'NONE', #125, 3.500000000000008438, 0.5235987755983002589 ) ;
#135 = VERTEX_POINT ( 'NONE', #40 ) ;
#136 = DIRECTION ( 'NONE',  ( 0.0000000000000000000, -1.000000000000000000, 0.0000000000000000000 ) ) ;
#137 = AXIS2_PLACEMENT_3D ( 'NONE', #184, #204, #63 ) ;
#138 = DIRECTION ( 'NONE',  ( 0.0000000000000000000, 0.0000000000000000000, 1.000000000000000000 ) ) ;
#139 = APPROVAL_DATE_TIME ( #155, #197 ) ;
#140 = PERSON_AND_ORGANIZATION_ROLE ( 'classification_officer' ) ;
#141 = DIRECTION ( 'NONE',  ( -3.491481338843133355E-15, 1.224646799147353207E-16, -1.000000000000000000 ) ) ;
#142 = EDGE_LOOP ( 'NONE', ( #28 ) ) ;
#143 = CIRCLE ( 'NONE', #117, 1.650000000000003908 ) ;
#144 = ORIENTED_EDGE ( 'NONE', *, *, #101, .T. ) ;
#145 = PRODUCT_DEFINITION_FORMATION_WITH_SPECIFIED_SOURCE ( 'ANY', '', #253, .NOT_KNOWN. ) ;
#146 = DIRECTION ( 'NONE',  ( 3.491481338843133355E-15, -4.327174794786742882E-16, 1.000000000000000000 ) ) ;
#147 = EDGE_LOOP ( 'NONE', ( #183 ) ) ;
#148 = FACE_BOUND ( 'NONE', #31, .T. ) ;
#149 = CARTESIAN_POINT ( 'NONE',  ( 0.0000000000000000000, 0.0000000000000000000, 0.0000000000000000000 ) ) ;
#150 = EDGE_CURVE ( 'NONE', #167, #167, #10, .T. ) ;
#151 = CARTESIAN_POINT ( 'NONE',  ( 2.164718430082742680E-13, -7.592810154713590230E-15, 62.00000000000000000 ) ) ;
#152 = DIRECTION ( 'NONE',  ( -3.491481338843133355E-15, 1.224646799147353207E-16, -1.000000000000000000 ) ) ;
#153 = FACE_OUTER_BOUND ( 'NONE', #89, .T. ) ;
#154 = APPROVAL_ROLE ( '' ) ;
#155 = DATE_AND_TIME ( #116, #220 ) ;
#156 = AXIS2_PLACEMENT_3D ( 'NONE', #232, #249, #93 ) ;
#157 = APPROVAL_STATUS ( 'not_yet_approved' ) ;
#158 = PERSON_AND_ORGANIZATION ( #107, #95 ) ;
#159 = CALENDAR_DATE ( 2021, 13, 10 ) ;
#160 = ADVANCED_FACE ( 'NONE', ( #111, #148 ), #104, .T. ) ;
#161 = EDGE_LOOP ( 'NONE', ( #124 ) ) ;
#162 = EDGE_LOOP ( 'NONE', ( #103 ) ) ;
#163 = EDGE_LOOP ( 'NONE', ( #109 ) ) ;
#164 = APPROVAL_STATUS ( 'not_yet_approved' ) ;
#165 = PLANE ( 'NONE',  #26 ) ;
#166 = FACE_OUTER_BOUND ( 'NONE', #161, .T. ) ;
#167 = VERTEX_POINT ( 'NONE', #176 ) ;
#168 = AXIS2_PLACEMENT_3D ( 'NONE', #149, #39, #251 ) ;
#169 = CC_DESIGN_DATE_AND_TIME_ASSIGNMENT ( #60, #241, ( #84 ) ) ;
#170 = CARTESIAN_POINT ( 'NONE',  ( 4.888073874380386697E-14, 2.249639673992780664E-32, 14.00000000000000000 ) ) ;
#171 = DIRECTION ( 'NONE',  ( -3.491481338843133355E-15, 1.224646799147353207E-16, -1.000000000000000000 ) ) ;
#172 = CARTESIAN_POINT ( 'NONE',  ( 2.096812213377467579E-15, -7.354627209253894584E-17, 0.6005508865392431561 ) ) ;
#173 = ADVANCED_FACE ( 'NONE', ( #52, #153 ), #181, .F. ) ;
#174 = PERSON_AND_ORGANIZATION ( #107, #95 ) ;
#175 = CC_DESIGN_APPROVAL ( #110, ( #239 ) ) ;
#176 = CARTESIAN_POINT ( 'NONE',  ( 6.982962677686266711E-14, 1.649999999999998357, 20.00000000000000000 ) ) ;
#177 = EDGE_CURVE ( 'NONE', #240, #240, #191, .T. ) ;
#178 =( NAMED_UNIT ( * ) SI_UNIT ( $, .STERADIAN. ) SOLID_ANGLE_UNIT ( ) );
#179 = CC_DESIGN_SECURITY_CLASSIFICATION ( #239, ( #145 ) ) ;
#180 = ORIENTED_EDGE ( 'NONE', *, *, #177, .T. ) ;
#181 = TOROIDAL_SURFACE ( 'NONE', #74, 2.650000000000007461, 1.000000000000000222 ) ;
#182 = DATE_AND_TIME ( #201, #37 ) ;
#183 = ORIENTED_EDGE ( 'NONE', *, *, #206, .T. ) ;
#184 = CARTESIAN_POINT ( 'NONE',  ( 2.140278060710840684E-13, -7.507084878773275941E-15, 61.29999999999999716 ) ) ;
#185 = EDGE_LOOP ( 'NONE', ( #27 ) ) ;
#186 = FACE_OUTER_BOUND ( 'NONE', #142, .T. ) ;
#187 = DIRECTION ( 'NONE',  ( -3.491481338843133355E-15, 1.224646799147353207E-16, -1.000000000000000000 ) ) ;
#188 = CARTESIAN_POINT ( 'NONE',  ( 6.982962677686266711E-14, -8.673617379884035472E-15, 20.00000000000000000 ) ) ;
#189 = CONICAL_SURFACE ( 'NONE', #227, 2.999999999999993783, 1.221730476396026388 ) ;
#190 = DIRECTION ( 'NONE',  ( 3.491481338843133355E-15, -1.224646799147353207E-16, 1.000000000000000000 ) ) ;
#191 = CIRCLE ( 'NONE', #54, 1.783974596215568642 ) ;
#192 = VERTEX_POINT ( 'NONE', #213 ) ;
#193 = COORDINATED_UNIVERSAL_TIME_OFFSET ( 1, 0, .AHEAD. ) ;
#194 = APPLICATION_PROTOCOL_DEFINITION ( 'international standard', 'config_control_design', 1994, #67 ) ;
#195 = CARTESIAN_POINT ( 'NONE',  ( 2.164718430082742680E-13, 2.299999999999994049, 62.00000000000000000 ) ) ;
#196 = CARTESIAN_POINT ( 'NONE',  ( 7.157536744628424009E-14, 1.783974596215559760, 20.50000000000000000 ) ) ;
#197 = APPROVAL ( #42, 'UNSPECIFIED' ) ;
#198 = APPROVAL_ROLE ( '' ) ;
#199 = CARTESIAN_POINT ( 'NONE',  ( 4.888073874380386697E-14, 2.249639673992780664E-32, 14.00000000000000000 ) ) ;
#200 = ORIENTED_EDGE ( 'NONE', *, *, #150, .T. ) ;
#201 = CALENDAR_DATE ( 2021, 13, 10 ) ;
#202 = CARTESIAN_POINT ( 'NONE',  ( 8.195289906622059020E-14, -1.015684990934400711E-14, 23.47224318643353769 ) ) ;
#203 = DATE_TIME_ROLE ( 'classification_date' ) ;
#204 = DIRECTION ( 'NONE',  ( -3.491481338843133355E-15, 1.224646799147353207E-16, -1.000000000000000000 ) ) ;
#205 = DIRECTION ( 'NONE',  ( 3.491481338843133355E-15, -1.224646799147353207E-16, 1.000000000000000000 ) ) ;
#206 = EDGE_CURVE ( 'NONE', #16, #16, #32, .T. ) ;
#207 = DIRECTION ( 'NONE',  ( 0.0000000000000000000, 1.000000000000000000, 0.0000000000000000000 ) ) ;
#208 = DIRECTION ( 'NONE',  ( -3.491481338843133355E-15, 4.327174794786742882E-16, -1.000000000000000000 ) ) ;
#209 = ADVANCED_BREP_SHAPE_REPRESENTATION ( '43312', ( #45, #225, #106 ), #41 ) ;
#210 = DIRECTION ( 'NONE',  ( -3.491481338843133355E-15, 4.327174794786742882E-16, -1.000000000000000000 ) ) ;
#211 = VERTEX_POINT ( 'NONE', #114 ) ;
#212 = CC_DESIGN_PERSON_AND_ORGANIZATION_ASSIGNMENT ( #158, #98, ( #84 ) ) ;
#213 = CARTESIAN_POINT ( 'NONE',  ( 7.892918752994308587E-14, -3.000000000000008438, 22.60621778264908599 ) ) ;
#214 = CLOSED_SHELL ( 'NONE', ( #65, #224, #69 ) ) ;
#215 = MECHANICAL_CONTEXT ( 'NONE', #115, 'mechanical' ) ;
#216 = COORDINATED_UNIVERSAL_TIME_OFFSET ( 1, 0, .AHEAD. ) ;
#217 = PERSON_AND_ORGANIZATION_ROLE ( 'creator' ) ;
#218 = DIRECTION ( 'NONE',  ( 1.000000000000000000, 0.0000000000000000000, 0.0000000000000000000 ) ) ;
#219 = EDGE_CURVE ( 'NONE', #262, #262, #23, .T. ) ;
#220 = LOCAL_TIME ( 13, 35, 53.00000000000000000, #61 ) ;
#221 = PERSON_AND_ORGANIZATION ( #107, #95 ) ;
#222 = DIRECTION ( 'NONE',  ( 3.491481338843133355E-15, -1.224646799147353207E-16, 1.000000000000000000 ) ) ;
#223 = EDGE_LOOP ( 'NONE', ( #47 ) ) ;
#224 = ADVANCED_FACE ( 'NONE', ( #131, #55 ), #235, .T. ) ;
#225 = MANIFOLD_SOLID_BREP ( 'Corps-Déplacer/Copier1[2]', #214 ) ;
#226 = ORIENTED_EDGE ( 'NONE', *, *, #219, .F. ) ;
#227 = AXIS2_PLACEMENT_3D ( 'NONE', #229, #222, #127 ) ;
#228 = AXIS2_PLACEMENT_3D ( 'NONE', #14, #171, #238 ) ;
#229 = CARTESIAN_POINT ( 'NONE',  ( 3.812385842504470444E-15, -1.337204947137066162E-16, 1.091910702798619459 ) ) ;
#230 = FACE_OUTER_BOUND ( 'NONE', #147, .T. ) ;
#231 = UNCERTAINTY_MEASURE_WITH_UNIT (LENGTH_MEASURE( 1.000000000000000082E-05 ), #259, 'distance_accuracy_value', 'NONE');
#232 = CARTESIAN_POINT ( 'NONE',  ( 6.982962677686266711E-14, -8.654349589573485764E-15, 20.00000000000000000 ) ) ;
#233 = AXIS2_PLACEMENT_3D ( 'NONE', #170, #190, #252 ) ;
#234 = DIRECTION ( 'NONE',  ( -4.668921077302379012E-31, -1.000000000000000000, -1.314184451497578054E-16 ) ) ;
#235 = CYLINDRICAL_SURFACE ( 'NONE', #18, 1.650000000000003908 ) ;
#236 = DIRECTION ( 'NONE',  ( -3.491481338843133355E-15, 1.224646799147353207E-16, -1.000000000000000000 ) ) ;
#237 = AXIS2_PLACEMENT_3D ( 'NONE', #85, #141, #71 ) ;
#238 = DIRECTION ( 'NONE',  ( 4.275831445896958607E-31, 1.000000000000000000, 1.224646799147353454E-16 ) ) ;
#239 = SECURITY_CLASSIFICATION ( '', '', #43 ) ;
#240 = VERTEX_POINT ( 'NONE', #196 ) ;
#241 = DATE_TIME_ROLE ( 'creation_date' ) ;
#242 = APPROVAL_DATE_TIME ( #19, #261 ) ;
#243 = EDGE_LOOP ( 'NONE', ( #226 ) ) ;
#244 = CC_DESIGN_APPROVAL ( #261, ( #84 ) ) ;
#245 = EDGE_LOOP ( 'NONE', ( #126 ) ) ;
#246 = CC_DESIGN_PERSON_AND_ORGANIZATION_ASSIGNMENT ( #255, #217, ( #145 ) ) ;
#247 = EDGE_LOOP ( 'NONE', ( #144 ) ) ;
#248 = DIRECTION ( 'NONE',  ( 4.275831445896958607E-31, 1.000000000000000000, 1.224646799147353207E-16 ) ) ;
#249 = DIRECTION ( 'NONE',  ( -3.491481338843133355E-15, 4.327174794786742882E-16, -1.000000000000000000 ) ) ;
#250 = CARTESIAN_POINT ( 'NONE',  ( 2.164718430082742680E-13, -7.592810154713590230E-15, 62.00000000000000000 ) ) ;
#251 = DIRECTION ( 'NONE',  ( 1.510825004591027679E-30, 1.000000000000000000, 4.327174794786742882E-16 ) ) ;
#252 = DIRECTION ( 'NONE',  ( -4.275831445896958607E-31, -1.000000000000000000, -1.224646799147353207E-16 ) ) ;
#253 = PRODUCT ( '43312', '43312', '', ( #215 ) ) ;
#254 = ADVANCED_FACE ( 'NONE', ( #186, #94 ), #72, .T. ) ;
#255 = PERSON_AND_ORGANIZATION ( #107, #95 ) ;
#256 = AXIS2_PLACEMENT_3D ( 'NONE', #172, #187, #234 ) ;
#257 = CALENDAR_DATE ( 2021, 13, 10 ) ;
#258 = CARTESIAN_POINT ( 'NONE',  ( 2.096812213377466791E-15, -1.650000000000003908, 0.6005508865392430451 ) ) ;
#259 =( LENGTH_UNIT ( ) NAMED_UNIT ( * ) SI_UNIT ( .MILLI., .METRE. ) );
#260 = AXIS2_PLACEMENT_3D ( 'NONE', #250, #236, #207 ) ;
#261 = APPROVAL ( #157, 'UNSPECIFIED' ) ;
#262 = VERTEX_POINT ( 'NONE', #195 ) ;
#263 = FACE_BOUND ( 'NONE', #245, .T. ) ;
ENDSEC;
END-ISO-10303-21;
