ISO-10303-21;
HEADER;
FILE_DESCRIPTION (( 'STEP AP203' ),
    '1' );
FILE_NAME ('43311.step',
    '2021-10-13T11:35:53',
    ( '' ),
    ( '' ),
    'SwSTEP 2.0',
    'SolidWorks 2019',
    '' );
FILE_SCHEMA (( 'CONFIG_CONTROL_DESIGN' ));
ENDSEC;

DATA;
#1 = PERSON ( 'UNSPECIFIED', 'UNSPECIFIED', 'UNSPECIFIED', ('UNSPECIFIED'), ('UNSPECIFIED'), ('UNSPECIFIED') ) ;
#2 = CC_DESIGN_PERSON_AND_ORGANIZATION_ASSIGNMENT ( #40, #44, ( #169 ) ) ;
#3 = SECURITY_CLASSIFICATION_LEVEL ( 'unclassified' ) ;
#4 = PERSON_AND_ORGANIZATION ( #1, #200 ) ;
#5 = CALENDAR_DATE ( 2021, 13, 10 ) ;
#6 = AXIS2_PLACEMENT_3D ( 'NONE', #137, #62, #261 ) ;
#7 = COORDINATED_UNIVERSAL_TIME_OFFSET ( 1, 0, .AHEAD. ) ;
#8 = ADVANCED_FACE ( 'NONE', ( #253 ), #175, .T. ) ;
#9 = CARTESIAN_POINT ( 'NONE',  ( 4.888073874380386697E-14, -6.058044712701440824E-15, 14.00000000000000000 ) ) ;
#10 = EDGE_LOOP ( 'NONE', ( #211 ) ) ;
#11 = EDGE_LOOP ( 'NONE', ( #258 ) ) ;
#12 = DIRECTION ( 'NONE',  ( 0.0000000000000000000, 1.000000000000000000, 0.0000000000000000000 ) ) ;
#13 = CARTESIAN_POINT ( 'NONE',  ( 4.888073874380386697E-14, 2.249639673992780664E-32, 14.00000000000000000 ) ) ;
#14 = DIRECTION ( 'NONE',  ( 0.0000000000000000000, -1.000000000000000000, 0.0000000000000000000 ) ) ;
#15 = DIRECTION ( 'NONE',  ( 1.510825004591027855E-30, 1.000000000000000000, 4.327174794786742882E-16 ) ) ;
#16 = EDGE_CURVE ( 'NONE', #141, #141, #222, .T. ) ;
#17 = CLOSED_SHELL ( 'NONE', ( #214, #47, #8 ) ) ;
#18 = CARTESIAN_POINT ( 'NONE',  ( 0.0000000000000000000, 0.0000000000000000000, 0.0000000000000000000 ) ) ;
#19 = FACE_OUTER_BOUND ( 'NONE', #10, .T. ) ;
#20 = AXIS2_PLACEMENT_3D ( 'NONE', #195, #254, #12 ) ;
#21 = DATE_AND_TIME ( #190, #42 ) ;
#22 =( NAMED_UNIT ( * ) SI_UNIT ( $, .STERADIAN. ) SOLID_ANGLE_UNIT ( ) );
#23 = CC_DESIGN_PERSON_AND_ORGANIZATION_ASSIGNMENT ( #247, #63, ( #127 ) ) ;
#24 = ORIENTED_EDGE ( 'NONE', *, *, #179, .F. ) ;
#25 =( NAMED_UNIT ( * ) PLANE_ANGLE_UNIT ( ) SI_UNIT ( $, .RADIAN. ) );
#26 = FACE_OUTER_BOUND ( 'NONE', #90, .T. ) ;
#27 = FACE_OUTER_BOUND ( 'NONE', #29, .T. ) ;
#28 = AXIS2_PLACEMENT_3D ( 'NONE', #133, #70, #242 ) ;
#29 = EDGE_LOOP ( 'NONE', ( #213 ) ) ;
#30 = CONICAL_SURFACE ( 'NONE', #76, 2.999999999999993783, 1.221730476396026388 ) ;
#31 = EDGE_LOOP ( 'NONE', ( #194 ) ) ;
#32 = ORIENTED_EDGE ( 'NONE', *, *, #54, .T. ) ;
#33 = CARTESIAN_POINT ( 'NONE',  ( 6.982962677686266711E-14, -8.654349589573485764E-15, 20.00000000000000000 ) ) ;
#34 = CARTESIAN_POINT ( 'NONE',  ( 7.923155868357084892E-14, -9.819580012442909056E-15, 22.69282032302753294 ) ) ;
#35 = EDGE_CURVE ( 'NONE', #202, #202, #226, .T. ) ;
#36 = DIRECTION ( 'NONE',  ( -4.275831445896958607E-31, -1.000000000000000000, -1.224646799147353207E-16 ) ) ;
#37 = FACE_OUTER_BOUND ( 'NONE', #50, .T. ) ;
#38 = PRODUCT_DEFINITION_SHAPE ( 'NONE', 'NONE',  #87 ) ;
#39 = CARTESIAN_POINT ( 'NONE',  ( 7.157536744628425272E-14, 1.733974596215559272, 20.50000000000000355 ) ) ;
#40 = PERSON_AND_ORGANIZATION ( #1, #200 ) ;
#41 = CALENDAR_DATE ( 2021, 13, 10 ) ;
#42 = LOCAL_TIME ( 13, 35, 53.00000000000000000, #223 ) ;
#43 = DATE_TIME_ROLE ( 'classification_date' ) ;
#44 = PERSON_AND_ORGANIZATION_ROLE ( 'creator' ) ;
#45 = AXIS2_PLACEMENT_3D ( 'NONE', #9, #88, #67 ) ;
#46 = ORIENTED_EDGE ( 'NONE', *, *, #102, .F. ) ;
#47 = ADVANCED_FACE ( 'NONE', ( #26, #27 ), #153, .T. ) ;
#48 = DATE_AND_TIME ( #51, #165 ) ;
#49 = FACE_BOUND ( 'NONE', #92, .T. ) ;
#50 = EDGE_LOOP ( 'NONE', ( #178 ) ) ;
#51 = CALENDAR_DATE ( 2021, 13, 10 ) ;
#52 = ORIENTED_EDGE ( 'NONE', *, *, #179, .T. ) ;
#53 = AXIS2_PLACEMENT_3D ( 'NONE', #108, #83, #126 ) ;
#54 = EDGE_CURVE ( 'NONE', #161, #161, #107, .T. ) ;
#55 = DIRECTION ( 'NONE',  ( 1.510825004591027679E-30, 1.000000000000000000, 4.327174794786742882E-16 ) ) ;
#56 = DIRECTION ( 'NONE',  ( 3.491481338843133355E-15, -4.327174794786742882E-16, 1.000000000000000000 ) ) ;
#57 = FACE_OUTER_BOUND ( 'NONE', #131, .T. ) ;
#58 = CIRCLE ( 'NONE', #116, 2.999999999999998224 ) ;
#59 = CC_DESIGN_PERSON_AND_ORGANIZATION_ASSIGNMENT ( #204, #125, ( #169 ) ) ;
#60 = VERTEX_POINT ( 'NONE', #139 ) ;
#61 = VERTEX_POINT ( 'NONE', #221 ) ;
#62 = DIRECTION ( 'NONE',  ( -3.491481338843133355E-15, 1.224646799147353207E-16, -1.000000000000000000 ) ) ;
#63 = PERSON_AND_ORGANIZATION_ROLE ( 'classification_officer' ) ;
#64 = MECHANICAL_CONTEXT ( 'NONE', #143, 'mechanical' ) ;
#65 = APPLICATION_PROTOCOL_DEFINITION ( 'international standard', 'config_control_design', 1994, #249 ) ;
#66 = DATE_AND_TIME ( #170, #192 ) ;
#67 = DIRECTION ( 'NONE',  ( 0.0000000000000000000, -1.000000000000000000, 0.0000000000000000000 ) ) ;
#68 = CARTESIAN_POINT ( 'NONE',  ( 4.888073874380386697E-14, 2.249639673992780664E-32, 14.00000000000000000 ) ) ;
#69 = EDGE_CURVE ( 'NONE', #157, #157, #111, .T. ) ;
#70 = DIRECTION ( 'NONE',  ( -3.491481338843133355E-15, 1.224646799147353207E-16, -1.000000000000000000 ) ) ;
#71 = CARTESIAN_POINT ( 'NONE',  ( 4.888073874380386697E-14, -1.600000000000009637, 14.00000000000000000 ) ) ;
#72 = DIRECTION ( 'NONE',  ( -3.491481338843133355E-15, 4.327174794786742882E-16, -1.000000000000000000 ) ) ;
#73 = APPROVAL ( #188, 'UNSPECIFIED' ) ;
#74 = FACE_OUTER_BOUND ( 'NONE', #216, .T. ) ;
#75 = CONICAL_SURFACE ( 'NONE', #146, 3.500000000000008882, 0.5235987755983002589 ) ;
#76 = AXIS2_PLACEMENT_3D ( 'NONE', #198, #263, #199 ) ;
#77 = DIRECTION ( 'NONE',  ( -3.491481338843133355E-15, 1.224646799147353207E-16, -1.000000000000000000 ) ) ;
#78 = FACE_BOUND ( 'NONE', #215, .T. ) ;
#79 = APPROVAL ( #85, 'UNSPECIFIED' ) ;
#80 = PERSON_AND_ORGANIZATION_ROLE ( 'creator' ) ;
#81 =( GEOMETRIC_REPRESENTATION_CONTEXT ( 3 ) GLOBAL_UNCERTAINTY_ASSIGNED_CONTEXT ( ( #243 ) ) GLOBAL_UNIT_ASSIGNED_CONTEXT ( ( #167, #25, #22 ) ) REPRESENTATION_CONTEXT ( 'NONE', 'WORKASPACE' ) );
#82 = CARTESIAN_POINT ( 'NONE',  ( 4.888073874380386697E-14, -1.600000000000009637, 14.00000000000000000 ) ) ;
#83 = DIRECTION ( 'NONE',  ( 0.0000000000000000000, 0.0000000000000000000, 1.000000000000000000 ) ) ;
#84 = ADVANCED_FACE ( 'NONE', ( #49, #234 ), #75, .T. ) ;
#85 = APPROVAL_STATUS ( 'not_yet_approved' ) ;
#86 = DATE_AND_TIME ( #5, #100 ) ;
#87 = PRODUCT_DEFINITION ( 'UNKNOWN', '', #169, #106 ) ;
#88 = DIRECTION ( 'NONE',  ( -3.491481338843133355E-15, 1.224646799147353207E-16, -1.000000000000000000 ) ) ;
#89 = CLOSED_SHELL ( 'NONE', ( #255, #262, #172, #122, #84, #162, #248 ) ) ;
#90 = EDGE_LOOP ( 'NONE', ( #52 ) ) ;
#91 = DIRECTION ( 'NONE',  ( 3.491481338843133355E-15, -1.224646799147353207E-16, 1.000000000000000000 ) ) ;
#92 = EDGE_LOOP ( 'NONE', ( #237 ) ) ;
#93 = CARTESIAN_POINT ( 'NONE',  ( 2.140278060710840684E-13, -7.507084878773275941E-15, 61.29999999999999716 ) ) ;
#94 = CC_DESIGN_APPROVAL ( #209, ( #87 ) ) ;
#95 = EDGE_CURVE ( 'NONE', #60, #60, #232, .T. ) ;
#96 = PLANE ( 'NONE',  #136 ) ;
#97 = CARTESIAN_POINT ( 'NONE',  ( 6.982962677686266711E-14, -8.673617379884035472E-15, 20.00000000000000000 ) ) ;
#98 = DIRECTION ( 'NONE',  ( 4.275831445896958607E-31, 1.000000000000000000, 1.224646799147353454E-16 ) ) ;
#99 = CIRCLE ( 'NONE', #186, 1.600000000000006528 ) ;
#100 = LOCAL_TIME ( 13, 35, 53.00000000000000000, #189 ) ;
#101 = DIRECTION ( 'NONE',  ( -3.491481338843133355E-15, 1.224646799147353207E-16, -1.000000000000000000 ) ) ;
#102 = EDGE_CURVE ( 'NONE', #220, #220, #58, .T. ) ;
#103 = AXIS2_PLACEMENT_3D ( 'NONE', #68, #91, #113 ) ;
#104 = EDGE_CURVE ( 'NONE', #61, #61, #99, .T. ) ;
#105 = APPROVAL_STATUS ( 'not_yet_approved' ) ;
#106 = DESIGN_CONTEXT ( 'detailed design', #249, 'design' ) ;
#107 = CIRCLE ( 'NONE', #45, 1.600000000000003642 ) ;
#108 = CARTESIAN_POINT ( 'NONE',  ( 0.0000000000000000000, 0.0000000000000000000, 0.0000000000000000000 ) ) ;
#109 = ORIENTED_EDGE ( 'NONE', *, *, #35, .F. ) ;
#110 = DIRECTION ( 'NONE',  ( -3.491481338843133355E-15, 4.327174794786742882E-16, -1.000000000000000000 ) ) ;
#111 = CIRCLE ( 'NONE', #236, 1.600000000000003642 ) ;
#112 = CC_DESIGN_APPROVAL ( #73, ( #127 ) ) ;
#113 = DIRECTION ( 'NONE',  ( -4.275831445896958607E-31, -1.000000000000000000, -1.224646799147353207E-16 ) ) ;
#114 = ORIENTED_EDGE ( 'NONE', *, *, #69, .T. ) ;
#115 = EDGE_LOOP ( 'NONE', ( #177 ) ) ;
#116 = AXIS2_PLACEMENT_3D ( 'NONE', #34, #56, #14 ) ;
#117 = DIRECTION ( 'NONE',  ( 4.275831445896958607E-31, 1.000000000000000000, 1.224646799147353207E-16 ) ) ;
#118 = AXIS2_PLACEMENT_3D ( 'NONE', #259, #77, #98 ) ;
#119 = DIRECTION ( 'NONE',  ( -3.491481338843133355E-15, 4.327174794786742882E-16, -1.000000000000000000 ) ) ;
#120 = CARTESIAN_POINT ( 'NONE',  ( 7.923155868357084892E-14, -3.000000000000008438, 22.69282032302753294 ) ) ;
#121 = FACE_OUTER_BOUND ( 'NONE', #115, .T. ) ;
#122 = ADVANCED_FACE ( 'NONE', ( #37, #19 ), #135, .T. ) ;
#123 = COORDINATED_UNIVERSAL_TIME_OFFSET ( 1, 0, .AHEAD. ) ;
#124 = CIRCLE ( 'NONE', #6, 1.600000000000003642 ) ;
#125 = PERSON_AND_ORGANIZATION_ROLE ( 'design_supplier' ) ;
#126 = DIRECTION ( 'NONE',  ( 1.000000000000000000, 0.0000000000000000000, 0.0000000000000000000 ) ) ;
#127 = SECURITY_CLASSIFICATION ( '', '', #3 ) ;
#128 = ORIENTED_EDGE ( 'NONE', *, *, #35, .T. ) ;
#129 = APPROVAL_DATE_TIME ( #48, #73 ) ;
#130 = EDGE_LOOP ( 'NONE', ( #32 ) ) ;
#131 = EDGE_LOOP ( 'NONE', ( #114 ) ) ;
#132 = MANIFOLD_SOLID_BREP ( 'Corps-Déplacer/Copier1[1]', #89 ) ;
#133 = CARTESIAN_POINT ( 'NONE',  ( 2.164718430082742680E-13, -7.592810154713590230E-15, 62.00000000000000000 ) ) ;
#134 = EDGE_LOOP ( 'NONE', ( #191 ) ) ;
#135 = CYLINDRICAL_SURFACE ( 'NONE', #240, 1.600000000000003642 ) ;
#136 = AXIS2_PLACEMENT_3D ( 'NONE', #217, #101, #117 ) ;
#137 = CARTESIAN_POINT ( 'NONE',  ( 4.888073874380386697E-14, -6.058044712701440824E-15, 14.00000000000000000 ) ) ;
#138 = MANIFOLD_SOLID_BREP ( 'Corps-Déplacer/Copier1[2]', #17 ) ;
#139 = CARTESIAN_POINT ( 'NONE',  ( 2.164718430082742680E-13, 2.299999999999994049, 62.00000000000000000 ) ) ;
#140 = FACE_OUTER_BOUND ( 'NONE', #130, .T. ) ;
#141 = VERTEX_POINT ( 'NONE', #39 ) ;
#142 = APPROVAL_PERSON_ORGANIZATION ( #144, #73, #250 ) ;
#143 = APPLICATION_CONTEXT ( 'configuration controlled 3d designs of mechanical parts and assemblies' ) ;
#144 = PERSON_AND_ORGANIZATION ( #1, #200 ) ;
#145 = APPROVAL_ROLE ( '' ) ;
#146 = AXIS2_PLACEMENT_3D ( 'NONE', #193, #154, #235 ) ;
#147 = CONICAL_SURFACE ( 'NONE', #206, 2.300000000000001599, 0.7853981633974485010 ) ;
#148 = CC_DESIGN_PERSON_AND_ORGANIZATION_ASSIGNMENT ( #208, #80, ( #87 ) ) ;
#149 = COORDINATED_UNIVERSAL_TIME_OFFSET ( 1, 0, .AHEAD. ) ;
#150 = DIRECTION ( 'NONE',  ( -3.491481338843133355E-15, 1.224646799147353207E-16, -1.000000000000000000 ) ) ;
#151 = APPROVAL_PERSON_ORGANIZATION ( #166, #79, #168 ) ;
#152 = DIRECTION ( 'NONE',  ( 0.0000000000000000000, 1.000000000000000000, 0.0000000000000000000 ) ) ;
#153 = CYLINDRICAL_SURFACE ( 'NONE', #163, 1.600000000000003642 ) ;
#154 = DIRECTION ( 'NONE',  ( 3.491481338843133355E-15, -4.327174794786742882E-16, 1.000000000000000000 ) ) ;
#155 = CARTESIAN_POINT ( 'NONE',  ( 0.0000000000000000000, 0.0000000000000000000, 0.0000000000000000000 ) ) ;
#156 = PRODUCT_RELATED_PRODUCT_CATEGORY ( 'detail', '', ( #164 ) ) ;
#157 = VERTEX_POINT ( 'NONE', #219 ) ;
#158 = CYLINDRICAL_SURFACE ( 'NONE', #118, 2.999999999999998224 ) ;
#159 = DIRECTION ( 'NONE',  ( 0.0000000000000000000, 1.000000000000000000, 0.0000000000000000000 ) ) ;
#160 = CARTESIAN_POINT ( 'NONE',  ( 2.164718430082742680E-13, -7.592810154713590230E-15, 62.00000000000000000 ) ) ;
#161 = VERTEX_POINT ( 'NONE', #71 ) ;
#162 = ADVANCED_FACE ( 'NONE', ( #121, #201 ), #218, .F. ) ;
#163 = AXIS2_PLACEMENT_3D ( 'NONE', #155, #110, #55 ) ;
#164 = PRODUCT ( '43311', '43311', '', ( #64 ) ) ;
#165 = LOCAL_TIME ( 13, 35, 53.00000000000000000, #149 ) ;
#166 = PERSON_AND_ORGANIZATION ( #1, #200 ) ;
#167 =( LENGTH_UNIT ( ) NAMED_UNIT ( * ) SI_UNIT ( .MILLI., .METRE. ) );
#168 = APPROVAL_ROLE ( '' ) ;
#169 = PRODUCT_DEFINITION_FORMATION_WITH_SPECIFIED_SOURCE ( 'ANY', '', #164, .NOT_KNOWN. ) ;
#170 = CALENDAR_DATE ( 2021, 13, 10 ) ;
#171 = SHAPE_DEFINITION_REPRESENTATION ( #38, #176 ) ;
#172 = ADVANCED_FACE ( 'NONE', ( #238 ), #96, .F. ) ;
#173 = CARTESIAN_POINT ( 'NONE',  ( 2.033272449335725827E-15, -7.131759718064381954E-17, 0.5823523748259327171 ) ) ;
#174 = AXIS2_PLACEMENT_3D ( 'NONE', #13, #181, #36 ) ;
#175 = PLANE ( 'NONE',  #103 ) ;
#176 = ADVANCED_BREP_SHAPE_REPRESENTATION ( '43311', ( #132, #138, #53 ), #81 ) ;
#177 = ORIENTED_EDGE ( 'NONE', *, *, #104, .F. ) ;
#178 = ORIENTED_EDGE ( 'NONE', *, *, #104, .T. ) ;
#179 = EDGE_CURVE ( 'NONE', #230, #230, #124, .T. ) ;
#180 = EDGE_LOOP ( 'NONE', ( #24 ) ) ;
#181 = DIRECTION ( 'NONE',  ( 3.491481338843133355E-15, -1.224646799147353207E-16, 1.000000000000000000 ) ) ;
#182 = FACE_OUTER_BOUND ( 'NONE', #212, .T. ) ;
#183 = DIRECTION ( 'NONE',  ( -3.491481338843133355E-15, 4.327174794786742882E-16, -1.000000000000000000 ) ) ;
#184 = PLANE ( 'NONE',  #174 ) ;
#185 = DIRECTION ( 'NONE',  ( 1.510825004591027679E-30, 1.000000000000000000, 4.327174794786742882E-16 ) ) ;
#186 = AXIS2_PLACEMENT_3D ( 'NONE', #33, #72, #239 ) ;
#187 = PERSON_AND_ORGANIZATION_ROLE ( 'design_owner' ) ;
#188 = APPROVAL_STATUS ( 'not_yet_approved' ) ;
#189 = COORDINATED_UNIVERSAL_TIME_OFFSET ( 1, 0, .AHEAD. ) ;
#190 = CALENDAR_DATE ( 2021, 13, 10 ) ;
#191 = ORIENTED_EDGE ( 'NONE', *, *, #16, .T. ) ;
#192 = LOCAL_TIME ( 13, 35, 53.00000000000000000, #7 ) ;
#193 = CARTESIAN_POINT ( 'NONE',  ( 8.225527021984835325E-14, -1.019432434233302099E-14, 23.55884572681198819 ) ) ;
#194 = ORIENTED_EDGE ( 'NONE', *, *, #95, .F. ) ;
#195 = CARTESIAN_POINT ( 'NONE',  ( 7.157536744628425272E-14, -8.870708329312826064E-15, 20.50000000000000355 ) ) ;
#196 = APPROVAL_PERSON_ORGANIZATION ( #205, #209, #145 ) ;
#197 = FACE_OUTER_BOUND ( 'NONE', #11, .T. ) ;
#198 = CARTESIAN_POINT ( 'NONE',  ( 3.812385842504470444E-15, -1.337204947137066162E-16, 1.091910702798619459 ) ) ;
#199 = DIRECTION ( 'NONE',  ( -5.135813185032639159E-31, -1.000000000000000000, -1.445602896647342121E-16 ) ) ;
#200 = ORGANIZATION ( 'UNSPECIFIED', 'UNSPECIFIED', '' ) ;
#201 = FACE_OUTER_BOUND ( 'NONE', #134, .T. ) ;
#202 = VERTEX_POINT ( 'NONE', #244 ) ;
#203 = CC_DESIGN_PERSON_AND_ORGANIZATION_ASSIGNMENT ( #4, #187, ( #164 ) ) ;
#204 = PERSON_AND_ORGANIZATION ( #1, #200 ) ;
#205 = PERSON_AND_ORGANIZATION ( #1, #200 ) ;
#206 = AXIS2_PLACEMENT_3D ( 'NONE', #160, #241, #159 ) ;
#207 = CC_DESIGN_DATE_AND_TIME_ASSIGNMENT ( #86, #227, ( #87 ) ) ;
#208 = PERSON_AND_ORGANIZATION ( #1, #200 ) ;
#209 = APPROVAL ( #105, 'UNSPECIFIED' ) ;
#210 = LOCAL_TIME ( 13, 35, 53.00000000000000000, #123 ) ;
#211 = ORIENTED_EDGE ( 'NONE', *, *, #54, .F. ) ;
#212 = EDGE_LOOP ( 'NONE', ( #128 ) ) ;
#213 = ORIENTED_EDGE ( 'NONE', *, *, #69, .F. ) ;
#214 = ADVANCED_FACE ( 'NONE', ( #57 ), #30, .T. ) ;
#215 = EDGE_LOOP ( 'NONE', ( #231 ) ) ;
#216 = EDGE_LOOP ( 'NONE', ( #109 ) ) ;
#217 = CARTESIAN_POINT ( 'NONE',  ( 2.164718430082742680E-13, 1.724723750061125849E-32, 62.00000000000000000 ) ) ;
#218 = TOROIDAL_SURFACE ( 'NONE', #252, 2.600000000000006750, 1.000000000000001776 ) ;
#219 = CARTESIAN_POINT ( 'NONE',  ( 2.033272449335725038E-15, -1.600000000000003642, 0.5823523748259324950 ) ) ;
#220 = VERTEX_POINT ( 'NONE', #120 ) ;
#221 = CARTESIAN_POINT ( 'NONE',  ( 6.982962677686266711E-14, 1.599999999999997868, 20.00000000000000000 ) ) ;
#222 = CIRCLE ( 'NONE', #20, 1.733974596215568154 ) ;
#223 = COORDINATED_UNIVERSAL_TIME_OFFSET ( 1, 0, .AHEAD. ) ;
#224 = APPROVAL_DATE_TIME ( #21, #79 ) ;
#225 = CC_DESIGN_DATE_AND_TIME_ASSIGNMENT ( #66, #43, ( #127 ) ) ;
#226 = CIRCLE ( 'NONE', #245, 3.000000000000001332 ) ;
#227 = DATE_TIME_ROLE ( 'creation_date' ) ;
#228 = CC_DESIGN_APPROVAL ( #79, ( #169 ) ) ;
#229 = APPLICATION_PROTOCOL_DEFINITION ( 'international standard', 'config_control_design', 1994, #143 ) ;
#230 = VERTEX_POINT ( 'NONE', #82 ) ;
#231 = ORIENTED_EDGE ( 'NONE', *, *, #95, .T. ) ;
#232 = CIRCLE ( 'NONE', #28, 2.300000000000001599 ) ;
#233 = DIRECTION ( 'NONE',  ( -3.491481338843133355E-15, 1.224646799147353207E-16, -1.000000000000000000 ) ) ;
#234 = FACE_OUTER_BOUND ( 'NONE', #256, .T. ) ;
#235 = DIRECTION ( 'NONE',  ( 0.0000000000000000000, -1.000000000000000000, 0.0000000000000000000 ) ) ;
#236 = AXIS2_PLACEMENT_3D ( 'NONE', #173, #233, #257 ) ;
#237 = ORIENTED_EDGE ( 'NONE', *, *, #16, .F. ) ;
#238 = FACE_OUTER_BOUND ( 'NONE', #31, .T. ) ;
#239 = DIRECTION ( 'NONE',  ( 0.0000000000000000000, 1.000000000000000000, 0.0000000000000000000 ) ) ;
#240 = AXIS2_PLACEMENT_3D ( 'NONE', #18, #119, #185 ) ;
#241 = DIRECTION ( 'NONE',  ( -3.491481338843133355E-15, 1.224646799147353207E-16, -1.000000000000000000 ) ) ;
#242 = DIRECTION ( 'NONE',  ( 0.0000000000000000000, 1.000000000000000000, 0.0000000000000000000 ) ) ;
#243 = UNCERTAINTY_MEASURE_WITH_UNIT (LENGTH_MEASURE( 1.000000000000000082E-05 ), #167, 'distance_accuracy_value', 'NONE');
#244 = CARTESIAN_POINT ( 'NONE',  ( 2.140278060710840684E-13, 2.999999999999993783, 61.29999999999999716 ) ) ;
#245 = AXIS2_PLACEMENT_3D ( 'NONE', #93, #150, #152 ) ;
#246 = DATE_AND_TIME ( #41, #210 ) ;
#247 = PERSON_AND_ORGANIZATION ( #1, #200 ) ;
#248 = ADVANCED_FACE ( 'NONE', ( #140 ), #184, .F. ) ;
#249 = APPLICATION_CONTEXT ( 'configuration controlled 3d designs of mechanical parts and assemblies' ) ;
#250 = APPROVAL_ROLE ( '' ) ;
#251 = APPROVAL_DATE_TIME ( #246, #209 ) ;
#252 = AXIS2_PLACEMENT_3D ( 'NONE', #97, #183, #15 ) ;
#253 = FACE_OUTER_BOUND ( 'NONE', #180, .T. ) ;
#254 = DIRECTION ( 'NONE',  ( -3.491481338843133355E-15, 4.327174794786742882E-16, -1.000000000000000000 ) ) ;
#255 = ADVANCED_FACE ( 'NONE', ( #197, #182 ), #158, .T. ) ;
#256 = EDGE_LOOP ( 'NONE', ( #46 ) ) ;
#257 = DIRECTION ( 'NONE',  ( -4.814824860968078247E-31, -1.000000000000000000, -1.355252715606877338E-16 ) ) ;
#258 = ORIENTED_EDGE ( 'NONE', *, *, #102, .T. ) ;
#259 = CARTESIAN_POINT ( 'NONE',  ( 0.0000000000000000000, 0.0000000000000000000, 0.0000000000000000000 ) ) ;
#260 = CC_DESIGN_SECURITY_CLASSIFICATION ( #127, ( #169 ) ) ;
#261 = DIRECTION ( 'NONE',  ( 0.0000000000000000000, -1.000000000000000000, 0.0000000000000000000 ) ) ;
#262 = ADVANCED_FACE ( 'NONE', ( #74, #78 ), #147, .T. ) ;
#263 = DIRECTION ( 'NONE',  ( 3.491481338843133355E-15, -1.224646799147353207E-16, 1.000000000000000000 ) ) ;
ENDSEC;
END-ISO-10303-21;
