ISO-10303-21;
HEADER;
FILE_DESCRIPTION (( 'STEP AP203' ),
    '1' );
FILE_NAME ('43310.step',
    '2021-10-13T11:35:52',
    ( '' ),
    ( '' ),
    'SwSTEP 2.0',
    'SolidWorks 2019',
    '' );
FILE_SCHEMA (( 'CONFIG_CONTROL_DESIGN' ));
ENDSEC;

DATA;
#1 = DESIGN_CONTEXT ( 'detailed design', #120, 'design' ) ;
#2 = CIRCLE ( 'NONE', #196, 1.550000000000003597 ) ;
#3 = CARTESIAN_POINT ( 'NONE',  ( 6.982962677686266711E-14, -8.673617379884035472E-15, 20.00000000000000000 ) ) ;
#4 = CC_DESIGN_PERSON_AND_ORGANIZATION_ASSIGNMENT ( #53, #150, ( #65 ) ) ;
#5 = DIRECTION ( 'NONE',  ( 1.510825004591027855E-30, 1.000000000000000000, 4.327174794786742882E-16 ) ) ;
#6 =( GEOMETRIC_REPRESENTATION_CONTEXT ( 3 ) GLOBAL_UNCERTAINTY_ASSIGNED_CONTEXT ( ( #199 ) ) GLOBAL_UNIT_ASSIGNED_CONTEXT ( ( #160, #254, #256 ) ) REPRESENTATION_CONTEXT ( 'NONE', 'WORKASPACE' ) );
#7 = VERTEX_POINT ( 'NONE', #84 ) ;
#8 = DIRECTION ( 'NONE',  ( 3.491481338843133355E-15, -1.224646799147353207E-16, 1.000000000000000000 ) ) ;
#9 = ORGANIZATION ( 'UNSPECIFIED', 'UNSPECIFIED', '' ) ;
#10 = EDGE_LOOP ( 'NONE', ( #197 ) ) ;
#11 = VERTEX_POINT ( 'NONE', #42 ) ;
#12 = CALENDAR_DATE ( 2021, 13, 10 ) ;
#13 = COORDINATED_UNIVERSAL_TIME_OFFSET ( 1, 0, .AHEAD. ) ;
#14 = ADVANCED_FACE ( 'NONE', ( #56, #175 ), #257, .F. ) ;
#15 = FACE_OUTER_BOUND ( 'NONE', #145, .T. ) ;
#16 = FACE_OUTER_BOUND ( 'NONE', #52, .T. ) ;
#17 = PERSON_AND_ORGANIZATION_ROLE ( 'creator' ) ;
#18 = DIRECTION ( 'NONE',  ( -4.275831445896958607E-31, -1.000000000000000000, -1.224646799147353207E-16 ) ) ;
#19 = DIRECTION ( 'NONE',  ( 0.0000000000000000000, 1.000000000000000000, 0.0000000000000000000 ) ) ;
#20 = DIRECTION ( 'NONE',  ( 3.491481338843133355E-15, -1.224646799147353207E-16, 1.000000000000000000 ) ) ;
#21 = VERTEX_POINT ( 'NONE', #181 ) ;
#22 = DIRECTION ( 'NONE',  ( -3.491481338843133355E-15, 1.224646799147353207E-16, -1.000000000000000000 ) ) ;
#23 = FACE_OUTER_BOUND ( 'NONE', #68, .T. ) ;
#24 = LOCAL_TIME ( 13, 35, 52.00000000000000000, #131 ) ;
#25 = EDGE_LOOP ( 'NONE', ( #70 ) ) ;
#26 = APPROVAL_ROLE ( '' ) ;
#27 = ADVANCED_FACE ( 'NONE', ( #15 ), #224, .F. ) ;
#28 = ORIENTED_EDGE ( 'NONE', *, *, #124, .T. ) ;
#29 = APPROVAL_STATUS ( 'not_yet_approved' ) ;
#30 = DIRECTION ( 'NONE',  ( -4.970141791967048626E-31, -1.000000000000000000, -1.398970545142583090E-16 ) ) ;
#31 = EDGE_LOOP ( 'NONE', ( #161 ) ) ;
#32 = APPROVAL_ROLE ( '' ) ;
#33 = CARTESIAN_POINT ( 'NONE',  ( 2.164718430082742680E-13, -7.592810154713590230E-15, 62.00000000000000000 ) ) ;
#34 = AXIS2_PLACEMENT_3D ( 'NONE', #74, #91, #76 ) ;
#35 = AXIS2_PLACEMENT_3D ( 'NONE', #212, #8, #228 ) ;
#36 = DIRECTION ( 'NONE',  ( -3.491481338843133355E-15, 1.224646799147353207E-16, -1.000000000000000000 ) ) ;
#37 = CC_DESIGN_APPROVAL ( #245, ( #65 ) ) ;
#38 = DIRECTION ( 'NONE',  ( -3.491481338843133355E-15, 4.327174794786742882E-16, -1.000000000000000000 ) ) ;
#39 = CC_DESIGN_PERSON_AND_ORGANIZATION_ASSIGNMENT ( #193, #17, ( #60 ) ) ;
#40 = APPLICATION_PROTOCOL_DEFINITION ( 'international standard', 'config_control_design', 1994, #235 ) ;
#41 = FACE_OUTER_BOUND ( 'NONE', #86, .T. ) ;
#42 = CARTESIAN_POINT ( 'NONE',  ( 4.888073874380386697E-14, -1.550000000000009592, 14.00000000000000000 ) ) ;
#43 = VERTEX_POINT ( 'NONE', #122 ) ;
#44 = PRODUCT_DEFINITION_SHAPE ( 'NONE', 'NONE',  #65 ) ;
#45 = EDGE_LOOP ( 'NONE', ( #49 ) ) ;
#46 = EDGE_CURVE ( 'NONE', #43, #43, #239, .T. ) ;
#47 = AXIS2_PLACEMENT_3D ( 'NONE', #192, #152, #153 ) ;
#48 = APPROVAL_PERSON_ORGANIZATION ( #188, #57, #26 ) ;
#49 = ORIENTED_EDGE ( 'NONE', *, *, #167, .F. ) ;
#50 = ADVANCED_FACE ( 'NONE', ( #97, #246 ), #95, .T. ) ;
#51 = SECURITY_CLASSIFICATION_LEVEL ( 'unclassified' ) ;
#52 = EDGE_LOOP ( 'NONE', ( #28 ) ) ;
#53 = PERSON_AND_ORGANIZATION ( #180, #9 ) ;
#54 = DIRECTION ( 'NONE',  ( -3.491481338843133355E-15, 4.327174794786742882E-16, -1.000000000000000000 ) ) ;
#55 = DATE_AND_TIME ( #259, #139 ) ;
#56 = FACE_OUTER_BOUND ( 'NONE', #183, .T. ) ;
#57 = APPROVAL ( #127, 'UNSPECIFIED' ) ;
#58 = CARTESIAN_POINT ( 'NONE',  ( 0.0000000000000000000, 0.0000000000000000000, 0.0000000000000000000 ) ) ;
#59 = ADVANCED_FACE ( 'NONE', ( #261, #137 ), #140, .T. ) ;
#60 = PRODUCT_DEFINITION_FORMATION_WITH_SPECIFIED_SOURCE ( 'ANY', '', #98, .NOT_KNOWN. ) ;
#61 = CYLINDRICAL_SURFACE ( 'NONE', #62, 1.550000000000003597 ) ;
#62 = AXIS2_PLACEMENT_3D ( 'NONE', #58, #38, #5 ) ;
#63 = AXIS2_PLACEMENT_3D ( 'NONE', #253, #22, #184 ) ;
#64 = CARTESIAN_POINT ( 'NONE',  ( 7.953392983719857411E-14, -9.857054445431918198E-15, 22.77942286340597633 ) ) ;
#65 = PRODUCT_DEFINITION ( 'UNKNOWN', '', #60, #1 ) ;
#66 = APPLICATION_PROTOCOL_DEFINITION ( 'international standard', 'config_control_design', 1994, #120 ) ;
#67 = CARTESIAN_POINT ( 'NONE',  ( 4.888073874380386697E-14, -6.058044712701440824E-15, 14.00000000000000000 ) ) ;
#68 = EDGE_LOOP ( 'NONE', ( #168 ) ) ;
#69 = DATE_TIME_ROLE ( 'classification_date' ) ;
#70 = ORIENTED_EDGE ( 'NONE', *, *, #46, .T. ) ;
#71 = EDGE_CURVE ( 'NONE', #87, #87, #206, .T. ) ;
#72 = APPROVAL_DATE_TIME ( #114, #194 ) ;
#73 = ORIENTED_EDGE ( 'NONE', *, *, #200, .F. ) ;
#74 = CARTESIAN_POINT ( 'NONE',  ( 7.157536744628424009E-14, -8.870708329312824486E-15, 20.50000000000000000 ) ) ;
#75 = CC_DESIGN_APPROVAL ( #57, ( #105 ) ) ;
#76 = DIRECTION ( 'NONE',  ( 0.0000000000000000000, 1.000000000000000000, 0.0000000000000000000 ) ) ;
#77 = CARTESIAN_POINT ( 'NONE',  ( 8.255764137347607844E-14, -1.023179877532202855E-14, 23.64544826719042803 ) ) ;
#78 = CC_DESIGN_PERSON_AND_ORGANIZATION_ASSIGNMENT ( #216, #94, ( #105 ) ) ;
#79 = CIRCLE ( 'NONE', #172, 1.550000000000006928 ) ;
#80 = MANIFOLD_SOLID_BREP ( 'Corps-Déplacer/Copier1[1]', #102 ) ;
#81 = DIRECTION ( 'NONE',  ( 0.0000000000000000000, 1.000000000000000000, 0.0000000000000000000 ) ) ;
#82 = DIRECTION ( 'NONE',  ( -3.491481338843133355E-15, 1.224646799147353207E-16, -1.000000000000000000 ) ) ;
#83 = PERSON_AND_ORGANIZATION_ROLE ( 'design_owner' ) ;
#84 = CARTESIAN_POINT ( 'NONE',  ( 1.969732685293984074E-15, -1.550000000000003597, 0.5641538631126222780 ) ) ;
#85 = CARTESIAN_POINT ( 'NONE',  ( 4.888073874380386697E-14, -1.550000000000009592, 14.00000000000000000 ) ) ;
#86 = EDGE_LOOP ( 'NONE', ( #165 ) ) ;
#87 = VERTEX_POINT ( 'NONE', #230 ) ;
#88 = CC_DESIGN_PERSON_AND_ORGANIZATION_ASSIGNMENT ( #164, #83, ( #98 ) ) ;
#89 = EDGE_LOOP ( 'NONE', ( #92 ) ) ;
#90 = ORIENTED_EDGE ( 'NONE', *, *, #46, .F. ) ;
#91 = DIRECTION ( 'NONE',  ( -3.491481338843133355E-15, 4.327174794786742882E-16, -1.000000000000000000 ) ) ;
#92 = ORIENTED_EDGE ( 'NONE', *, *, #200, .T. ) ;
#93 = AXIS2_PLACEMENT_3D ( 'NONE', #33, #121, #19 ) ;
#94 = PERSON_AND_ORGANIZATION_ROLE ( 'classification_officer' ) ;
#95 = CYLINDRICAL_SURFACE ( 'NONE', #233, 1.550000000000003597 ) ;
#96 = CIRCLE ( 'NONE', #47, 1.550000000000003597 ) ;
#97 = FACE_OUTER_BOUND ( 'NONE', #255, .T. ) ;
#98 = PRODUCT ( '43310', '43310', '', ( #162 ) ) ;
#99 = FACE_BOUND ( 'NONE', #262, .T. ) ;
#100 = EDGE_CURVE ( 'NONE', #21, #21, #79, .T. ) ;
#101 = CARTESIAN_POINT ( 'NONE',  ( 7.953392983719857411E-14, -3.000000000000008438, 22.77942286340597633 ) ) ;
#102 = CLOSED_SHELL ( 'NONE', ( #252, #158, #111, #50, #59, #14, #27 ) ) ;
#103 = FACE_OUTER_BOUND ( 'NONE', #89, .T. ) ;
#104 = CARTESIAN_POINT ( 'NONE',  ( 2.164718430082742680E-13, 2.299999999999994049, 62.00000000000000000 ) ) ;
#105 = SECURITY_CLASSIFICATION ( '', '', #51 ) ;
#106 = CC_DESIGN_APPROVAL ( #194, ( #60 ) ) ;
#107 = CALENDAR_DATE ( 2021, 13, 10 ) ;
#108 = CLOSED_SHELL ( 'NONE', ( #205, #154, #225 ) ) ;
#109 = CALENDAR_DATE ( 2021, 13, 10 ) ;
#110 = DIRECTION ( 'NONE',  ( 0.0000000000000000000, 1.000000000000000000, 0.0000000000000000000 ) ) ;
#111 = ADVANCED_FACE ( 'NONE', ( #220 ), #141, .F. ) ;
#112 = DATE_AND_TIME ( #12, #24 ) ;
#113 = DIRECTION ( 'NONE',  ( 1.510825004591027855E-30, 1.000000000000000000, 4.327174794786742882E-16 ) ) ;
#114 = DATE_AND_TIME ( #109, #156 ) ;
#115 = ORIENTED_EDGE ( 'NONE', *, *, #100, .T. ) ;
#116 = CIRCLE ( 'NONE', #144, 2.300000000000001599 ) ;
#117 = APPROVAL_PERSON_ORGANIZATION ( #219, #194, #32 ) ;
#118 = CC_DESIGN_PERSON_AND_ORGANIZATION_ASSIGNMENT ( #171, #129, ( #60 ) ) ;
#119 = DIRECTION ( 'NONE',  ( 4.275831445896958607E-31, 1.000000000000000000, 1.224646799147353207E-16 ) ) ;
#120 = APPLICATION_CONTEXT ( 'configuration controlled 3d designs of mechanical parts and assemblies' ) ;
#121 = DIRECTION ( 'NONE',  ( -3.491481338843133355E-15, 1.224646799147353207E-16, -1.000000000000000000 ) ) ;
#122 = CARTESIAN_POINT ( 'NONE',  ( 7.157536744628424009E-14, 1.683974596215559005, 20.50000000000000000 ) ) ;
#123 = DIRECTION ( 'NONE',  ( 0.0000000000000000000, -1.000000000000000000, 0.0000000000000000000 ) ) ;
#124 = EDGE_CURVE ( 'NONE', #11, #11, #96, .T. ) ;
#125 = VERTEX_POINT ( 'NONE', #104 ) ;
#126 = DIRECTION ( 'NONE',  ( -4.275831445896958607E-31, -1.000000000000000000, -1.224646799147353207E-16 ) ) ;
#127 = APPROVAL_STATUS ( 'not_yet_approved' ) ;
#128 = EDGE_LOOP ( 'NONE', ( #210 ) ) ;
#129 = PERSON_AND_ORGANIZATION_ROLE ( 'design_supplier' ) ;
#130 = EDGE_LOOP ( 'NONE', ( #73 ) ) ;
#131 = COORDINATED_UNIVERSAL_TIME_OFFSET ( 1, 0, .AHEAD. ) ;
#132 = ORIENTED_EDGE ( 'NONE', *, *, #176, .F. ) ;
#133 = CC_DESIGN_SECURITY_CLASSIFICATION ( #105, ( #60 ) ) ;
#134 = DATE_AND_TIME ( #174, #185 ) ;
#135 = CARTESIAN_POINT ( 'NONE',  ( 2.140278060710840684E-13, -7.507084878773275941E-15, 61.29999999999999716 ) ) ;
#136 = DATE_TIME_ROLE ( 'creation_date' ) ;
#137 = FACE_OUTER_BOUND ( 'NONE', #130, .T. ) ;
#138 = DIRECTION ( 'NONE',  ( 1.510825004591027855E-30, 1.000000000000000000, 4.327174794786742882E-16 ) ) ;
#139 = LOCAL_TIME ( 13, 35, 52.00000000000000000, #13 ) ;
#140 = CONICAL_SURFACE ( 'NONE', #229, 3.500000000000008438, 0.5235987755983000369 ) ;
#141 = PLANE ( 'NONE',  #247 ) ;
#142 = PERSON_AND_ORGANIZATION ( #180, #9 ) ;
#143 = PLANE ( 'NONE',  #240 ) ;
#144 = AXIS2_PLACEMENT_3D ( 'NONE', #157, #250, #110 ) ;
#145 = EDGE_LOOP ( 'NONE', ( #231 ) ) ;
#146 = CYLINDRICAL_SURFACE ( 'NONE', #63, 2.999999999999998224 ) ;
#147 = APPROVAL_DATE_TIME ( #112, #57 ) ;
#148 = CIRCLE ( 'NONE', #202, 2.999999999999998224 ) ;
#149 = CONICAL_SURFACE ( 'NONE', #35, 2.999999999999993783, 1.221730476396026388 ) ;
#150 = PERSON_AND_ORGANIZATION_ROLE ( 'creator' ) ;
#151 = DIRECTION ( 'NONE',  ( -3.491481338843133355E-15, 4.327174794786742882E-16, -1.000000000000000000 ) ) ;
#152 = DIRECTION ( 'NONE',  ( -3.491481338843133355E-15, 1.224646799147353207E-16, -1.000000000000000000 ) ) ;
#153 = DIRECTION ( 'NONE',  ( 0.0000000000000000000, -1.000000000000000000, 0.0000000000000000000 ) ) ;
#154 = ADVANCED_FACE ( 'NONE', ( #16, #155 ), #61, .T. ) ;
#155 = FACE_OUTER_BOUND ( 'NONE', #45, .T. ) ;
#156 = LOCAL_TIME ( 13, 35, 52.00000000000000000, #236 ) ;
#157 = CARTESIAN_POINT ( 'NONE',  ( 2.164718430082742680E-13, -7.592810154713590230E-15, 62.00000000000000000 ) ) ;
#158 = ADVANCED_FACE ( 'NONE', ( #173, #99 ), #211, .T. ) ;
#159 = VERTEX_POINT ( 'NONE', #85 ) ;
#160 =( LENGTH_UNIT ( ) NAMED_UNIT ( * ) SI_UNIT ( .MILLI., .METRE. ) );
#161 = ORIENTED_EDGE ( 'NONE', *, *, #71, .F. ) ;
#162 = MECHANICAL_CONTEXT ( 'NONE', #235, 'mechanical' ) ;
#163 = CC_DESIGN_DATE_AND_TIME_ASSIGNMENT ( #134, #69, ( #105 ) ) ;
#164 = PERSON_AND_ORGANIZATION ( #180, #9 ) ;
#165 = ORIENTED_EDGE ( 'NONE', *, *, #124, .F. ) ;
#166 = AXIS2_PLACEMENT_3D ( 'NONE', #203, #169, #18 ) ;
#167 = EDGE_CURVE ( 'NONE', #7, #7, #2, .T. ) ;
#168 = ORIENTED_EDGE ( 'NONE', *, *, #167, .T. ) ;
#169 = DIRECTION ( 'NONE',  ( 3.491481338843133355E-15, -1.224646799147353207E-16, 1.000000000000000000 ) ) ;
#170 = ADVANCED_BREP_SHAPE_REPRESENTATION ( '43310', ( #80, #260, #249 ), #6 ) ;
#171 = PERSON_AND_ORGANIZATION ( #180, #9 ) ;
#172 = AXIS2_PLACEMENT_3D ( 'NONE', #218, #151, #227 ) ;
#173 = FACE_OUTER_BOUND ( 'NONE', #31, .T. ) ;
#174 = CALENDAR_DATE ( 2021, 13, 10 ) ;
#175 = FACE_OUTER_BOUND ( 'NONE', #25, .T. ) ;
#176 = EDGE_CURVE ( 'NONE', #125, #125, #116, .T. ) ;
#177 = DIRECTION ( 'NONE',  ( 3.491481338843133355E-15, -4.327174794786742882E-16, 1.000000000000000000 ) ) ;
#178 = CARTESIAN_POINT ( 'NONE',  ( 1.969732685293984863E-15, -6.908892226874871790E-17, 0.5641538631126225001 ) ) ;
#179 = APPROVAL_PERSON_ORGANIZATION ( #142, #245, #189 ) ;
#180 = PERSON ( 'UNSPECIFIED', 'UNSPECIFIED', 'UNSPECIFIED', ('UNSPECIFIED'), ('UNSPECIFIED'), ('UNSPECIFIED') ) ;
#181 = CARTESIAN_POINT ( 'NONE',  ( 6.982962677686266711E-14, 1.549999999999998268, 20.00000000000000000 ) ) ;
#182 = VERTEX_POINT ( 'NONE', #101 ) ;
#183 = EDGE_LOOP ( 'NONE', ( #234 ) ) ;
#184 = DIRECTION ( 'NONE',  ( 4.275831445896958607E-31, 1.000000000000000000, 1.224646799147353454E-16 ) ) ;
#185 = LOCAL_TIME ( 13, 35, 52.00000000000000000, #238 ) ;
#186 = ORIENTED_EDGE ( 'NONE', *, *, #176, .T. ) ;
#187 = DIRECTION ( 'NONE',  ( 0.0000000000000000000, 0.0000000000000000000, 1.000000000000000000 ) ) ;
#188 = PERSON_AND_ORGANIZATION ( #180, #9 ) ;
#189 = APPROVAL_ROLE ( '' ) ;
#190 = SHAPE_DEFINITION_REPRESENTATION ( #44, #170 ) ;
#191 = DIRECTION ( 'NONE',  ( 3.491481338843133355E-15, -4.327174794786742882E-16, 1.000000000000000000 ) ) ;
#192 = CARTESIAN_POINT ( 'NONE',  ( 4.888073874380386697E-14, -6.058044712701440824E-15, 14.00000000000000000 ) ) ;
#193 = PERSON_AND_ORGANIZATION ( #180, #9 ) ;
#194 = APPROVAL ( #29, 'UNSPECIFIED' ) ;
#195 = CIRCLE ( 'NONE', #198, 1.550000000000003597 ) ;
#196 = AXIS2_PLACEMENT_3D ( 'NONE', #178, #82, #30 ) ;
#197 = ORIENTED_EDGE ( 'NONE', *, *, #213, .F. ) ;
#198 = AXIS2_PLACEMENT_3D ( 'NONE', #67, #208, #123 ) ;
#199 = UNCERTAINTY_MEASURE_WITH_UNIT (LENGTH_MEASURE( 1.000000000000000082E-05 ), #160, 'distance_accuracy_value', 'NONE');
#200 = EDGE_CURVE ( 'NONE', #182, #182, #148, .T. ) ;
#201 = AXIS2_PLACEMENT_3D ( 'NONE', #3, #243, #113 ) ;
#202 = AXIS2_PLACEMENT_3D ( 'NONE', #64, #191, #209 ) ;
#203 = CARTESIAN_POINT ( 'NONE',  ( 4.888073874380386697E-14, 2.249639673992780664E-32, 14.00000000000000000 ) ) ;
#204 = FACE_OUTER_BOUND ( 'NONE', #128, .T. ) ;
#205 = ADVANCED_FACE ( 'NONE', ( #23 ), #149, .T. ) ;
#206 = CIRCLE ( 'NONE', #217, 3.000000000000001332 ) ;
#207 = CARTESIAN_POINT ( 'NONE',  ( 4.888073874380386697E-14, 2.249639673992780664E-32, 14.00000000000000000 ) ) ;
#208 = DIRECTION ( 'NONE',  ( -3.491481338843133355E-15, 1.224646799147353207E-16, -1.000000000000000000 ) ) ;
#209 = DIRECTION ( 'NONE',  ( 0.0000000000000000000, -1.000000000000000000, 0.0000000000000000000 ) ) ;
#210 = ORIENTED_EDGE ( 'NONE', *, *, #71, .T. ) ;
#211 = CONICAL_SURFACE ( 'NONE', #93, 2.300000000000001599, 0.7853981633974485010 ) ;
#212 = CARTESIAN_POINT ( 'NONE',  ( 3.812385842504470444E-15, -1.337204947137066162E-16, 1.091910702798619459 ) ) ;
#213 = EDGE_CURVE ( 'NONE', #159, #159, #195, .T. ) ;
#214 = APPROVAL_DATE_TIME ( #55, #245 ) ;
#215 = EDGE_LOOP ( 'NONE', ( #90 ) ) ;
#216 = PERSON_AND_ORGANIZATION ( #180, #9 ) ;
#217 = AXIS2_PLACEMENT_3D ( 'NONE', #135, #223, #81 ) ;
#218 = CARTESIAN_POINT ( 'NONE',  ( 6.982962677686266711E-14, -8.654349589573485764E-15, 20.00000000000000000 ) ) ;
#219 = PERSON_AND_ORGANIZATION ( #180, #9 ) ;
#220 = FACE_OUTER_BOUND ( 'NONE', #237, .T. ) ;
#221 = CC_DESIGN_DATE_AND_TIME_ASSIGNMENT ( #222, #136, ( #65 ) ) ;
#222 = DATE_AND_TIME ( #107, #226 ) ;
#223 = DIRECTION ( 'NONE',  ( -3.491481338843133355E-15, 1.224646799147353207E-16, -1.000000000000000000 ) ) ;
#224 = PLANE ( 'NONE',  #166 ) ;
#225 = ADVANCED_FACE ( 'NONE', ( #41 ), #143, .T. ) ;
#226 = LOCAL_TIME ( 13, 35, 52.00000000000000000, #242 ) ;
#227 = DIRECTION ( 'NONE',  ( 0.0000000000000000000, 1.000000000000000000, 0.0000000000000000000 ) ) ;
#228 = DIRECTION ( 'NONE',  ( -5.135813185032639159E-31, -1.000000000000000000, -1.445602896647342121E-16 ) ) ;
#229 = AXIS2_PLACEMENT_3D ( 'NONE', #77, #177, #241 ) ;
#230 = CARTESIAN_POINT ( 'NONE',  ( 2.140278060710840684E-13, 2.999999999999993783, 61.29999999999999716 ) ) ;
#231 = ORIENTED_EDGE ( 'NONE', *, *, #213, .T. ) ;
#232 = CARTESIAN_POINT ( 'NONE',  ( 0.0000000000000000000, 0.0000000000000000000, 0.0000000000000000000 ) ) ;
#233 = AXIS2_PLACEMENT_3D ( 'NONE', #263, #54, #138 ) ;
#234 = ORIENTED_EDGE ( 'NONE', *, *, #100, .F. ) ;
#235 = APPLICATION_CONTEXT ( 'configuration controlled 3d designs of mechanical parts and assemblies' ) ;
#236 = COORDINATED_UNIVERSAL_TIME_OFFSET ( 1, 0, .AHEAD. ) ;
#237 = EDGE_LOOP ( 'NONE', ( #132 ) ) ;
#238 = COORDINATED_UNIVERSAL_TIME_OFFSET ( 1, 0, .AHEAD. ) ;
#239 = CIRCLE ( 'NONE', #34, 1.683974596215567887 ) ;
#240 = AXIS2_PLACEMENT_3D ( 'NONE', #207, #20, #126 ) ;
#241 = DIRECTION ( 'NONE',  ( 0.0000000000000000000, -1.000000000000000000, 0.0000000000000000000 ) ) ;
#242 = COORDINATED_UNIVERSAL_TIME_OFFSET ( 1, 0, .AHEAD. ) ;
#243 = DIRECTION ( 'NONE',  ( -3.491481338843133355E-15, 4.327174794786742882E-16, -1.000000000000000000 ) ) ;
#244 = CARTESIAN_POINT ( 'NONE',  ( 2.164718430082742680E-13, 1.724723750061125849E-32, 62.00000000000000000 ) ) ;
#245 = APPROVAL ( #258, 'UNSPECIFIED' ) ;
#246 = FACE_OUTER_BOUND ( 'NONE', #10, .T. ) ;
#247 = AXIS2_PLACEMENT_3D ( 'NONE', #244, #36, #119 ) ;
#248 = PRODUCT_RELATED_PRODUCT_CATEGORY ( 'detail', '', ( #98 ) ) ;
#249 = AXIS2_PLACEMENT_3D ( 'NONE', #232, #187, #251 ) ;
#250 = DIRECTION ( 'NONE',  ( -3.491481338843133355E-15, 1.224646799147353207E-16, -1.000000000000000000 ) ) ;
#251 = DIRECTION ( 'NONE',  ( 1.000000000000000000, 0.0000000000000000000, 0.0000000000000000000 ) ) ;
#252 = ADVANCED_FACE ( 'NONE', ( #103, #204 ), #146, .T. ) ;
#253 = CARTESIAN_POINT ( 'NONE',  ( 0.0000000000000000000, 0.0000000000000000000, 0.0000000000000000000 ) ) ;
#254 =( NAMED_UNIT ( * ) PLANE_ANGLE_UNIT ( ) SI_UNIT ( $, .RADIAN. ) );
#255 = EDGE_LOOP ( 'NONE', ( #115 ) ) ;
#256 =( NAMED_UNIT ( * ) SI_UNIT ( $, .STERADIAN. ) SOLID_ANGLE_UNIT ( ) );
#257 = TOROIDAL_SURFACE ( 'NONE', #201, 2.550000000000006040, 1.000000000000000000 ) ;
#258 = APPROVAL_STATUS ( 'not_yet_approved' ) ;
#259 = CALENDAR_DATE ( 2021, 13, 10 ) ;
#260 = MANIFOLD_SOLID_BREP ( 'Corps-Déplacer/Copier1[2]', #108 ) ;
#261 = FACE_BOUND ( 'NONE', #215, .T. ) ;
#262 = EDGE_LOOP ( 'NONE', ( #186 ) ) ;
#263 = CARTESIAN_POINT ( 'NONE',  ( 0.0000000000000000000, 0.0000000000000000000, 0.0000000000000000000 ) ) ;
ENDSEC;
END-ISO-10303-21;
