ISO-10303-21;
HEADER;
FILE_DESCRIPTION (( 'STEP AP203' ),
    '1' );
FILE_NAME ('43309.step',
    '2021-10-13T11:35:51',
    ( '' ),
    ( '' ),
    'SwSTEP 2.0',
    'SolidWorks 2019',
    '' );
FILE_SCHEMA (( 'CONFIG_CONTROL_DESIGN' ));
ENDSEC;

DATA;
#1 = PLANE ( 'NONE',  #203 ) ;
#2 = PRODUCT ( '43309', '43309', '', ( #155 ) ) ;
#3 = CC_DESIGN_PERSON_AND_ORGANIZATION_ASSIGNMENT ( #120, #176, ( #2 ) ) ;
#4 = DIRECTION ( 'NONE',  ( -4.275831445896958607E-31, -1.000000000000000000, -1.224646799147353207E-16 ) ) ;
#5 = DIRECTION ( 'NONE',  ( 0.0000000000000000000, 1.000000000000000000, 0.0000000000000000000 ) ) ;
#6 = PLANE ( 'NONE',  #11 ) ;
#7 = DIRECTION ( 'NONE',  ( 1.000000000000000000, 0.0000000000000000000, 0.0000000000000000000 ) ) ;
#8 = CLOSED_SHELL ( 'NONE', ( #12, #217, #231, #31, #240, #50, #84 ) ) ;
#9 = DATE_AND_TIME ( #193, #255 ) ;
#10 = COORDINATED_UNIVERSAL_TIME_OFFSET ( 1, 0, .AHEAD. ) ;
#11 = AXIS2_PLACEMENT_3D ( 'NONE', #67, #108, #22 ) ;
#12 = ADVANCED_FACE ( 'NONE', ( #143, #260 ), #58, .T. ) ;
#13 = DIRECTION ( 'NONE',  ( -3.491481338843133355E-15, 4.327174794786742882E-16, -1.000000000000000000 ) ) ;
#14 = AXIS2_PLACEMENT_3D ( 'NONE', #64, #206, #25 ) ;
#15 = DIRECTION ( 'NONE',  ( -5.135813185032639159E-31, -1.000000000000000000, -1.445602896647342121E-16 ) ) ;
#16 = FACE_OUTER_BOUND ( 'NONE', #199, .T. ) ;
#17 = SHAPE_DEFINITION_REPRESENTATION ( #216, #236 ) ;
#18 = EDGE_LOOP ( 'NONE', ( #80 ) ) ;
#19 = LOCAL_TIME ( 13, 35, 51.00000000000000000, #75 ) ;
#20 = VERTEX_POINT ( 'NONE', #190 ) ;
#21 = PERSON ( 'UNSPECIFIED', 'UNSPECIFIED', 'UNSPECIFIED', ('UNSPECIFIED'), ('UNSPECIFIED'), ('UNSPECIFIED') ) ;
#22 = DIRECTION ( 'NONE',  ( -4.275831445896958607E-31, -1.000000000000000000, -1.224646799147353207E-16 ) ) ;
#23 = ADVANCED_FACE ( 'NONE', ( #38 ), #171, .T. ) ;
#24 = DIRECTION ( 'NONE',  ( -3.491481338843133355E-15, 4.327174794786742882E-16, -1.000000000000000000 ) ) ;
#25 = DIRECTION ( 'NONE',  ( 4.275831445896958607E-31, 1.000000000000000000, 1.224646799147353207E-16 ) ) ;
#26 = AXIS2_PLACEMENT_3D ( 'NONE', #144, #56, #219 ) ;
#27 = DIRECTION ( 'NONE',  ( -5.135813185032616388E-31, -1.000000000000000000, -1.445602896647335712E-16 ) ) ;
#28 =( NAMED_UNIT ( * ) SI_UNIT ( $, .STERADIAN. ) SOLID_ANGLE_UNIT ( ) );
#29 = LOCAL_TIME ( 13, 35, 51.00000000000000000, #197 ) ;
#30 = PERSON_AND_ORGANIZATION_ROLE ( 'classification_officer' ) ;
#31 = ADVANCED_FACE ( 'NONE', ( #145, #39 ), #201, .T. ) ;
#32 = DATE_TIME_ROLE ( 'classification_date' ) ;
#33 = PRODUCT_DEFINITION_FORMATION_WITH_SPECIFIED_SOURCE ( 'ANY', '', #2, .NOT_KNOWN. ) ;
#34 = CC_DESIGN_DATE_AND_TIME_ASSIGNMENT ( #213, #32, ( #54 ) ) ;
#35 = ORIENTED_EDGE ( 'NONE', *, *, #73, .F. ) ;
#36 = ORIENTED_EDGE ( 'NONE', *, *, #95, .T. ) ;
#37 = LOCAL_TIME ( 13, 35, 51.00000000000000000, #10 ) ;
#38 = FACE_OUTER_BOUND ( 'NONE', #18, .T. ) ;
#39 = FACE_OUTER_BOUND ( 'NONE', #162, .T. ) ;
#40 = EDGE_LOOP ( 'NONE', ( #36 ) ) ;
#41 = CIRCLE ( 'NONE', #131, 1.500000000000003775 ) ;
#42 = VERTEX_POINT ( 'NONE', #233 ) ;
#43 = EDGE_CURVE ( 'NONE', #46, #46, #107, .T. ) ;
#44 = FACE_OUTER_BOUND ( 'NONE', #123, .T. ) ;
#45 = DIRECTION ( 'NONE',  ( -3.491481338843133355E-15, 1.224646799147353207E-16, -1.000000000000000000 ) ) ;
#46 = VERTEX_POINT ( 'NONE', #208 ) ;
#47 = CARTESIAN_POINT ( 'NONE',  ( 1.906192921252243505E-15, -6.686024735685359161E-17, 0.5459553513993120610 ) ) ;
#48 = PERSON_AND_ORGANIZATION_ROLE ( 'creator' ) ;
#49 = APPLICATION_PROTOCOL_DEFINITION ( 'international standard', 'config_control_design', 1994, #65 ) ;
#50 = ADVANCED_FACE ( 'NONE', ( #16, #104 ), #188, .F. ) ;
#51 =( LENGTH_UNIT ( ) NAMED_UNIT ( * ) SI_UNIT ( .MILLI., .METRE. ) );
#52 = DIRECTION ( 'NONE',  ( 0.0000000000000000000, 0.0000000000000000000, 1.000000000000000000 ) ) ;
#53 = APPROVAL_ROLE ( '' ) ;
#54 = SECURITY_CLASSIFICATION ( '', '', #230 ) ;
#55 = DESIGN_CONTEXT ( 'detailed design', #65, 'design' ) ;
#56 = DIRECTION ( 'NONE',  ( -3.491481338843133355E-15, 1.224646799147353207E-16, -1.000000000000000000 ) ) ;
#57 = ORIENTED_EDGE ( 'NONE', *, *, #149, .F. ) ;
#58 = CYLINDRICAL_SURFACE ( 'NONE', #26, 2.999999999999998224 ) ;
#59 = AXIS2_PLACEMENT_3D ( 'NONE', #161, #164, #239 ) ;
#60 = ORIENTED_EDGE ( 'NONE', *, *, #43, .T. ) ;
#61 = EDGE_LOOP ( 'NONE', ( #238 ) ) ;
#62 = EDGE_CURVE ( 'NONE', #20, #20, #41, .T. ) ;
#63 = CARTESIAN_POINT ( 'NONE',  ( 7.073328864297531186E-14, 1.534074173710929578, 20.25881904510251630 ) ) ;
#64 = CARTESIAN_POINT ( 'NONE',  ( 2.164718430082742680E-13, 1.724723750061125849E-32, 62.00000000000000000 ) ) ;
#65 = APPLICATION_CONTEXT ( 'configuration controlled 3d designs of mechanical parts and assemblies' ) ;
#66 = DIRECTION ( 'NONE',  ( -3.491481338843133355E-15, 1.224646799147353207E-16, -1.000000000000000000 ) ) ;
#67 = CARTESIAN_POINT ( 'NONE',  ( 4.888073874380386697E-14, 2.249639673992780664E-32, 14.00000000000000000 ) ) ;
#68 = FACE_OUTER_BOUND ( 'NONE', #242, .T. ) ;
#69 = CIRCLE ( 'NONE', #211, 1.534074173710938238 ) ;
#70 = CC_DESIGN_PERSON_AND_ORGANIZATION_ASSIGNMENT ( #253, #212, ( #33 ) ) ;
#71 = DATE_AND_TIME ( #252, #19 ) ;
#72 = APPROVAL_ROLE ( '' ) ;
#73 = EDGE_CURVE ( 'NONE', #88, #88, #192, .T. ) ;
#74 = MANIFOLD_SOLID_BREP ( 'Corps-Déplacer/Copier1[1]', #8 ) ;
#75 = COORDINATED_UNIVERSAL_TIME_OFFSET ( 1, 0, .AHEAD. ) ;
#76 = CONICAL_SURFACE ( 'NONE', #258, 2.300000000000001599, 0.7853981633974485010 ) ;
#77 = PERSON_AND_ORGANIZATION ( #21, #165 ) ;
#78 = MANIFOLD_SOLID_BREP ( 'Corps-Déplacer/Copier1[2]', #98 ) ;
#79 = PERSON_AND_ORGANIZATION_ROLE ( 'creator' ) ;
#80 = ORIENTED_EDGE ( 'NONE', *, *, #185, .T. ) ;
#81 = AXIS2_PLACEMENT_3D ( 'NONE', #170, #128, #148 ) ;
#82 = ORIENTED_EDGE ( 'NONE', *, *, #185, .F. ) ;
#83 = ORIENTED_EDGE ( 'NONE', *, *, #62, .T. ) ;
#84 = ADVANCED_FACE ( 'NONE', ( #44 ), #1, .F. ) ;
#85 = AXIS2_PLACEMENT_3D ( 'NONE', #227, #93, #174 ) ;
#86 = CARTESIAN_POINT ( 'NONE',  ( 0.0000000000000000000, 0.0000000000000000000, 0.0000000000000000000 ) ) ;
#87 = CC_DESIGN_PERSON_AND_ORGANIZATION_ASSIGNMENT ( #154, #48, ( #33 ) ) ;
#88 = VERTEX_POINT ( 'NONE', #244 ) ;
#89 = APPLICATION_CONTEXT ( 'configuration controlled 3d designs of mechanical parts and assemblies' ) ;
#90 = CARTESIAN_POINT ( 'NONE',  ( 7.073328864297531186E-14, -8.766345114411323042E-15, 20.25881904510251630 ) ) ;
#91 = DIRECTION ( 'NONE',  ( 0.0000000000000000000, -1.000000000000000000, 0.0000000000000000000 ) ) ;
#92 = FACE_OUTER_BOUND ( 'NONE', #125, .T. ) ;
#93 = DIRECTION ( 'NONE',  ( 3.491481338843133355E-15, -4.327174794786742882E-16, 1.000000000000000000 ) ) ;
#94 = AXIS2_PLACEMENT_3D ( 'NONE', #167, #215, #15 ) ;
#95 = EDGE_CURVE ( 'NONE', #250, #250, #69, .T. ) ;
#96 = CARTESIAN_POINT ( 'NONE',  ( 0.0000000000000000000, 0.0000000000000000000, 0.0000000000000000000 ) ) ;
#97 = APPROVAL_DATE_TIME ( #194, #200 ) ;
#98 = CLOSED_SHELL ( 'NONE', ( #23, #141, #210 ) ) ;
#99 = ORIENTED_EDGE ( 'NONE', *, *, #149, .T. ) ;
#100 = DIRECTION ( 'NONE',  ( 1.510825004591027679E-30, 1.000000000000000000, 4.327174794786742389E-16 ) ) ;
#101 = CIRCLE ( 'NONE', #228, 2.300000000000001599 ) ;
#102 = EDGE_CURVE ( 'NONE', #147, #147, #137, .T. ) ;
#103 = PERSON_AND_ORGANIZATION ( #21, #165 ) ;
#104 = FACE_OUTER_BOUND ( 'NONE', #40, .T. ) ;
#105 = ORIENTED_EDGE ( 'NONE', *, *, #73, .T. ) ;
#106 = APPROVAL ( #218, 'UNSPECIFIED' ) ;
#107 = CIRCLE ( 'NONE', #59, 1.500000000000003775 ) ;
#108 = DIRECTION ( 'NONE',  ( 3.491481338843133355E-15, -1.224646799147353207E-16, 1.000000000000000000 ) ) ;
#109 = DIRECTION ( 'NONE',  ( 0.0000000000000000000, -1.000000000000000000, 0.0000000000000000000 ) ) ;
#110 = DIRECTION ( 'NONE',  ( 3.491481338843133355E-15, -4.327174794786742882E-16, 1.000000000000000000 ) ) ;
#111 = CC_DESIGN_DATE_AND_TIME_ASSIGNMENT ( #9, #158, ( #248 ) ) ;
#112 = AXIS2_PLACEMENT_3D ( 'NONE', #247, #249, #229 ) ;
#113 = DIRECTION ( 'NONE',  ( 0.0000000000000000000, 1.000000000000000000, 0.0000000000000000000 ) ) ;
#114 = CARTESIAN_POINT ( 'NONE',  ( 2.140278060710840684E-13, -7.507084878773275941E-15, 61.29999999999999716 ) ) ;
#115 =( NAMED_UNIT ( * ) PLANE_ANGLE_UNIT ( ) SI_UNIT ( $, .RADIAN. ) );
#116 = CALENDAR_DATE ( 2021, 13, 10 ) ;
#117 = AXIS2_PLACEMENT_3D ( 'NONE', #114, #45, #113 ) ;
#118 = COORDINATED_UNIVERSAL_TIME_OFFSET ( 1, 0, .AHEAD. ) ;
#119 = CALENDAR_DATE ( 2021, 13, 10 ) ;
#120 = PERSON_AND_ORGANIZATION ( #21, #165 ) ;
#121 = APPROVAL_PERSON_ORGANIZATION ( #191, #200, #53 ) ;
#122 = EDGE_LOOP ( 'NONE', ( #57 ) ) ;
#123 = EDGE_LOOP ( 'NONE', ( #60 ) ) ;
#124 = LOCAL_TIME ( 13, 35, 51.00000000000000000, #139 ) ;
#125 = EDGE_LOOP ( 'NONE', ( #127 ) ) ;
#126 = ORIENTED_EDGE ( 'NONE', *, *, #102, .F. ) ;
#127 = ORIENTED_EDGE ( 'NONE', *, *, #169, .F. ) ;
#128 = DIRECTION ( 'NONE',  ( -3.491481338843133355E-15, 4.327174794786742882E-16, -1.000000000000000000 ) ) ;
#129 = CARTESIAN_POINT ( 'NONE',  ( 4.888073874380386697E-14, 2.249639673992780664E-32, 14.00000000000000000 ) ) ;
#130 = DIRECTION ( 'NONE',  ( 0.0000000000000000000, 1.000000000000000000, 0.0000000000000000000 ) ) ;
#131 = AXIS2_PLACEMENT_3D ( 'NONE', #221, #187, #109 ) ;
#132 = CARTESIAN_POINT ( 'NONE',  ( 8.983486764076271642E-14, -1.113370335460288312E-14, 25.72972870894065167 ) ) ;
#133 = PLANE ( 'NONE',  #14 ) ;
#134 = APPROVAL ( #254, 'UNSPECIFIED' ) ;
#135 = VERTEX_POINT ( 'NONE', #209 ) ;
#136 = APPROVAL_STATUS ( 'not_yet_approved' ) ;
#137 = CIRCLE ( 'NONE', #156, 2.999999999999998224 ) ;
#138 = PERSON_AND_ORGANIZATION ( #21, #165 ) ;
#139 = COORDINATED_UNIVERSAL_TIME_OFFSET ( 1, 0, .AHEAD. ) ;
#140 = CC_DESIGN_PERSON_AND_ORGANIZATION_ASSIGNMENT ( #77, #30, ( #54 ) ) ;
#141 = ADVANCED_FACE ( 'NONE', ( #172, #68 ), #204, .T. ) ;
#142 = DATE_AND_TIME ( #160, #29 ) ;
#143 = FACE_OUTER_BOUND ( 'NONE', #222, .T. ) ;
#144 = CARTESIAN_POINT ( 'NONE',  ( 0.0000000000000000000, 0.0000000000000000000, 0.0000000000000000000 ) ) ;
#145 = FACE_OUTER_BOUND ( 'NONE', #262, .T. ) ;
#146 = EDGE_LOOP ( 'NONE', ( #126 ) ) ;
#147 = VERTEX_POINT ( 'NONE', #223 ) ;
#148 = DIRECTION ( 'NONE',  ( 0.0000000000000000000, 1.000000000000000000, 0.0000000000000000000 ) ) ;
#149 = EDGE_CURVE ( 'NONE', #42, #42, #101, .T. ) ;
#150 = FACE_OUTER_BOUND ( 'NONE', #241, .T. ) ;
#151 = FACE_OUTER_BOUND ( 'NONE', #122, .T. ) ;
#152 =( GEOMETRIC_REPRESENTATION_CONTEXT ( 3 ) GLOBAL_UNCERTAINTY_ASSIGNED_CONTEXT ( ( #196 ) ) GLOBAL_UNIT_ASSIGNED_CONTEXT ( ( #51, #115, #28 ) ) REPRESENTATION_CONTEXT ( 'NONE', 'WORKASPACE' ) );
#153 = DIRECTION ( 'NONE',  ( 0.0000000000000000000, 1.000000000000000000, 0.0000000000000000000 ) ) ;
#154 = PERSON_AND_ORGANIZATION ( #21, #165 ) ;
#155 = MECHANICAL_CONTEXT ( 'NONE', #89, 'mechanical' ) ;
#156 = AXIS2_PLACEMENT_3D ( 'NONE', #132, #110, #91 ) ;
#157 = CC_DESIGN_PERSON_AND_ORGANIZATION_ASSIGNMENT ( #234, #79, ( #248 ) ) ;
#158 = DATE_TIME_ROLE ( 'creation_date' ) ;
#159 = EDGE_LOOP ( 'NONE', ( #99 ) ) ;
#160 = CALENDAR_DATE ( 2021, 13, 10 ) ;
#161 = CARTESIAN_POINT ( 'NONE',  ( 4.888073874380386697E-14, -6.058044712701440824E-15, 14.00000000000000000 ) ) ;
#162 = EDGE_LOOP ( 'NONE', ( #181 ) ) ;
#163 = PRODUCT_RELATED_PRODUCT_CATEGORY ( 'detail', '', ( #2 ) ) ;
#164 = DIRECTION ( 'NONE',  ( -3.491481338843133355E-15, 1.224646799147353207E-16, -1.000000000000000000 ) ) ;
#165 = ORGANIZATION ( 'UNSPECIFIED', 'UNSPECIFIED', '' ) ;
#166 = CC_DESIGN_SECURITY_CLASSIFICATION ( #54, ( #33 ) ) ;
#167 = CARTESIAN_POINT ( 'NONE',  ( 3.812385842504470444E-15, -1.337204947137066162E-16, 1.091910702798619459 ) ) ;
#168 = FACE_BOUND ( 'NONE', #61, .T. ) ;
#169 = EDGE_CURVE ( 'NONE', #135, #135, #224, .T. ) ;
#170 = CARTESIAN_POINT ( 'NONE',  ( 6.982962677686266711E-14, -8.654349589573485764E-15, 20.00000000000000000 ) ) ;
#171 = CONICAL_SURFACE ( 'NONE', #94, 2.999999999999993783, 1.221730476396026388 ) ;
#172 = FACE_OUTER_BOUND ( 'NONE', #259, .T. ) ;
#173 = FACE_OUTER_BOUND ( 'NONE', #146, .T. ) ;
#174 = DIRECTION ( 'NONE',  ( 0.0000000000000000000, -1.000000000000000000, 0.0000000000000000000 ) ) ;
#175 = CC_DESIGN_APPROVAL ( #134, ( #33 ) ) ;
#176 = PERSON_AND_ORGANIZATION_ROLE ( 'design_owner' ) ;
#177 = CARTESIAN_POINT ( 'NONE',  ( 1.906192921252242716E-15, -1.500000000000003775, 0.5459553513993118390 ) ) ;
#178 = AXIS2_PLACEMENT_3D ( 'NONE', #202, #225, #205 ) ;
#179 = ORIENTED_EDGE ( 'NONE', *, *, #62, .F. ) ;
#180 = AXIS2_PLACEMENT_3D ( 'NONE', #96, #52, #7 ) ;
#181 = ORIENTED_EDGE ( 'NONE', *, *, #43, .F. ) ;
#182 = APPROVAL_DATE_TIME ( #142, #106 ) ;
#183 = APPROVAL_PERSON_ORGANIZATION ( #138, #134, #72 ) ;
#184 = DIRECTION ( 'NONE',  ( -3.491481338843133355E-15, 1.224646799147353207E-16, -1.000000000000000000 ) ) ;
#185 = EDGE_CURVE ( 'NONE', #232, #232, #214, .T. ) ;
#186 = DIRECTION ( 'NONE',  ( -3.491481338843133355E-15, 1.224646799147353207E-16, -1.000000000000000000 ) ) ;
#187 = DIRECTION ( 'NONE',  ( -3.491481338843133355E-15, 1.224646799147353207E-16, -1.000000000000000000 ) ) ;
#188 = TOROIDAL_SURFACE ( 'NONE', #178, 2.500000000000007550, 1.000000000000000222 ) ;
#189 = DIRECTION ( 'NONE',  ( 3.491481338843133355E-15, -1.224646799147353207E-16, 1.000000000000000000 ) ) ;
#190 = CARTESIAN_POINT ( 'NONE',  ( 4.888073874380386697E-14, -1.500000000000009770, 14.00000000000000000 ) ) ;
#191 = PERSON_AND_ORGANIZATION ( #21, #165 ) ;
#192 = CIRCLE ( 'NONE', #81, 1.500000000000006883 ) ;
#193 = CALENDAR_DATE ( 2021, 13, 10 ) ;
#194 = DATE_AND_TIME ( #116, #37 ) ;
#195 = APPROVAL_PERSON_ORGANIZATION ( #103, #106, #261 ) ;
#196 = UNCERTAINTY_MEASURE_WITH_UNIT (LENGTH_MEASURE( 1.000000000000000082E-05 ), #51, 'distance_accuracy_value', 'NONE');
#197 = COORDINATED_UNIVERSAL_TIME_OFFSET ( 1, 0, .AHEAD. ) ;
#198 = ORIENTED_EDGE ( 'NONE', *, *, #102, .T. ) ;
#199 = EDGE_LOOP ( 'NONE', ( #35 ) ) ;
#200 = APPROVAL ( #136, 'UNSPECIFIED' ) ;
#201 = CYLINDRICAL_SURFACE ( 'NONE', #246, 1.500000000000003775 ) ;
#202 = CARTESIAN_POINT ( 'NONE',  ( 6.982962677686265448E-14, -8.673617379884035472E-15, 19.99999999999999645 ) ) ;
#203 = AXIS2_PLACEMENT_3D ( 'NONE', #129, #189, #4 ) ;
#204 = CYLINDRICAL_SURFACE ( 'NONE', #112, 1.500000000000003775 ) ;
#205 = DIRECTION ( 'NONE',  ( 1.510825004591027679E-30, 1.000000000000000000, 4.327174794786742882E-16 ) ) ;
#206 = DIRECTION ( 'NONE',  ( -3.491481338843133355E-15, 1.224646799147353207E-16, -1.000000000000000000 ) ) ;
#207 = CONICAL_SURFACE ( 'NONE', #85, 3.500000000000010658, 0.2617993877991502960 ) ;
#208 = CARTESIAN_POINT ( 'NONE',  ( 4.888073874380386697E-14, -1.500000000000009770, 14.00000000000000000 ) ) ;
#209 = CARTESIAN_POINT ( 'NONE',  ( 2.140278060710840684E-13, 2.999999999999993783, 61.29999999999999716 ) ) ;
#210 = ADVANCED_FACE ( 'NONE', ( #150 ), #6, .T. ) ;
#211 = AXIS2_PLACEMENT_3D ( 'NONE', #90, #24, #5 ) ;
#212 = PERSON_AND_ORGANIZATION_ROLE ( 'design_supplier' ) ;
#213 = DATE_AND_TIME ( #119, #124 ) ;
#214 = CIRCLE ( 'NONE', #251, 1.500000000000003775 ) ;
#215 = DIRECTION ( 'NONE',  ( 3.491481338843133355E-15, -1.224646799147353207E-16, 1.000000000000000000 ) ) ;
#216 = PRODUCT_DEFINITION_SHAPE ( 'NONE', 'NONE',  #248 ) ;
#217 = ADVANCED_FACE ( 'NONE', ( #92, #263 ), #76, .T. ) ;
#218 = APPROVAL_STATUS ( 'not_yet_approved' ) ;
#219 = DIRECTION ( 'NONE',  ( 4.275831445896958607E-31, 1.000000000000000000, 1.224646799147353454E-16 ) ) ;
#220 = CC_DESIGN_APPROVAL ( #200, ( #248 ) ) ;
#221 = CARTESIAN_POINT ( 'NONE',  ( 4.888073874380386697E-14, -6.058044712701440824E-15, 14.00000000000000000 ) ) ;
#222 = EDGE_LOOP ( 'NONE', ( #198 ) ) ;
#223 = CARTESIAN_POINT ( 'NONE',  ( 8.983486764076271642E-14, -3.000000000000009770, 25.72972870894065167 ) ) ;
#224 = CIRCLE ( 'NONE', #117, 3.000000000000001332 ) ;
#225 = DIRECTION ( 'NONE',  ( -3.491481338843133355E-15, 4.327174794786742882E-16, -1.000000000000000000 ) ) ;
#226 = CARTESIAN_POINT ( 'NONE',  ( 2.164718430082742680E-13, -7.592810154713590230E-15, 62.00000000000000000 ) ) ;
#227 = CARTESIAN_POINT ( 'NONE',  ( 9.635006051588344245E-14, -1.194116516397167881E-14, 27.59575411272513179 ) ) ;
#228 = AXIS2_PLACEMENT_3D ( 'NONE', #245, #66, #153 ) ;
#229 = DIRECTION ( 'NONE',  ( 1.510825004591027679E-30, 1.000000000000000000, 4.327174794786742389E-16 ) ) ;
#230 = SECURITY_CLASSIFICATION_LEVEL ( 'unclassified' ) ;
#231 = ADVANCED_FACE ( 'NONE', ( #151 ), #133, .F. ) ;
#232 = VERTEX_POINT ( 'NONE', #177 ) ;
#233 = CARTESIAN_POINT ( 'NONE',  ( 2.164718430082742680E-13, 2.299999999999994049, 62.00000000000000000 ) ) ;
#234 = PERSON_AND_ORGANIZATION ( #21, #165 ) ;
#235 = APPROVAL_DATE_TIME ( #71, #134 ) ;
#236 = ADVANCED_BREP_SHAPE_REPRESENTATION ( '43309', ( #74, #78, #180 ), #152 ) ;
#237 = CC_DESIGN_APPROVAL ( #106, ( #54 ) ) ;
#238 = ORIENTED_EDGE ( 'NONE', *, *, #95, .F. ) ;
#239 = DIRECTION ( 'NONE',  ( 0.0000000000000000000, -1.000000000000000000, 0.0000000000000000000 ) ) ;
#240 = ADVANCED_FACE ( 'NONE', ( #168, #173 ), #207, .T. ) ;
#241 = EDGE_LOOP ( 'NONE', ( #179 ) ) ;
#242 = EDGE_LOOP ( 'NONE', ( #82 ) ) ;
#243 = EDGE_LOOP ( 'NONE', ( #257 ) ) ;
#244 = CARTESIAN_POINT ( 'NONE',  ( 6.982962677686266711E-14, 1.499999999999998224, 20.00000000000000000 ) ) ;
#245 = CARTESIAN_POINT ( 'NONE',  ( 2.164718430082742680E-13, -7.592810154713590230E-15, 62.00000000000000000 ) ) ;
#246 = AXIS2_PLACEMENT_3D ( 'NONE', #86, #13, #100 ) ;
#247 = CARTESIAN_POINT ( 'NONE',  ( 0.0000000000000000000, 0.0000000000000000000, 0.0000000000000000000 ) ) ;
#248 = PRODUCT_DEFINITION ( 'UNKNOWN', '', #33, #55 ) ;
#249 = DIRECTION ( 'NONE',  ( -3.491481338843133355E-15, 4.327174794786742882E-16, -1.000000000000000000 ) ) ;
#250 = VERTEX_POINT ( 'NONE', #63 ) ;
#251 = AXIS2_PLACEMENT_3D ( 'NONE', #47, #184, #27 ) ;
#252 = CALENDAR_DATE ( 2021, 13, 10 ) ;
#253 = PERSON_AND_ORGANIZATION ( #21, #165 ) ;
#254 = APPROVAL_STATUS ( 'not_yet_approved' ) ;
#255 = LOCAL_TIME ( 13, 35, 51.00000000000000000, #118 ) ;
#256 = APPLICATION_PROTOCOL_DEFINITION ( 'international standard', 'config_control_design', 1994, #89 ) ;
#257 = ORIENTED_EDGE ( 'NONE', *, *, #169, .T. ) ;
#258 = AXIS2_PLACEMENT_3D ( 'NONE', #226, #186, #130 ) ;
#259 = EDGE_LOOP ( 'NONE', ( #83 ) ) ;
#260 = FACE_OUTER_BOUND ( 'NONE', #243, .T. ) ;
#261 = APPROVAL_ROLE ( '' ) ;
#262 = EDGE_LOOP ( 'NONE', ( #105 ) ) ;
#263 = FACE_BOUND ( 'NONE', #159, .T. ) ;
ENDSEC;
END-ISO-10303-21;
