ISO-10303-21;
HEADER;
FILE_DESCRIPTION (( 'STEP AP203' ),
    '1' );
FILE_NAME ('43308.step',
    '2021-10-13T11:35:51',
    ( '' ),
    ( '' ),
    'SwSTEP 2.0',
    'SolidWorks 2019',
    '' );
FILE_SCHEMA (( 'CONFIG_CONTROL_DESIGN' ));
ENDSEC;

DATA;
#1 = CC_DESIGN_APPROVAL ( #52, ( #234 ) ) ;
#2 = APPROVAL_PERSON_ORGANIZATION ( #193, #137, #151 ) ;
#3 = ADVANCED_FACE ( 'NONE', ( #191, #197 ), #121, .T. ) ;
#4 = AXIS2_PLACEMENT_3D ( 'NONE', #83, #158, #200 ) ;
#5 = CALENDAR_DATE ( 2021, 13, 10 ) ;
#6 = PERSON_AND_ORGANIZATION_ROLE ( 'creator' ) ;
#7 = APPLICATION_PROTOCOL_DEFINITION ( 'international standard', 'config_control_design', 1994, #168 ) ;
#8 = CC_DESIGN_SECURITY_CLASSIFICATION ( #205, ( #235 ) ) ;
#9 = CIRCLE ( 'NONE', #100, 1.999999999999997335 ) ;
#10 = EDGE_CURVE ( 'NONE', #135, #135, #9, .T. ) ;
#11 = DESIGN_CONTEXT ( 'detailed design', #183, 'design' ) ;
#12 = DATE_AND_TIME ( #141, #157 ) ;
#13 = CALENDAR_DATE ( 2021, 13, 10 ) ;
#14 = CYLINDRICAL_SURFACE ( 'NONE', #46, 1.450000000000002842 ) ;
#15 = ADVANCED_FACE ( 'NONE', ( #94, #133 ), #14, .T. ) ;
#16 = APPROVAL_DATE_TIME ( #74, #137 ) ;
#17 = EDGE_LOOP ( 'NONE', ( #58 ) ) ;
#18 = SHAPE_DEFINITION_REPRESENTATION ( #195, #221 ) ;
#19 = EDGE_LOOP ( 'NONE', ( #54 ) ) ;
#20 = EDGE_CURVE ( 'NONE', #43, #43, #249, .T. ) ;
#21 = AXIS2_PLACEMENT_3D ( 'NONE', #77, #59, #42 ) ;
#22 = FACE_OUTER_BOUND ( 'NONE', #19, .T. ) ;
#23 = DIRECTION ( 'NONE',  ( 3.491481338843133355E-15, -1.224646799147353207E-16, 1.000000000000000000 ) ) ;
#24 = ADVANCED_FACE ( 'NONE', ( #233, #55 ), #147, .F. ) ;
#25 = DIRECTION ( 'NONE',  ( -3.491481338843133355E-15, 1.224646799147353207E-16, -1.000000000000000000 ) ) ;
#26 = CIRCLE ( 'NONE', #36, 1.450000000000002842 ) ;
#27 = DIRECTION ( 'NONE',  ( 4.275831445896959482E-31, 1.000000000000000000, 1.224646799147353454E-16 ) ) ;
#28 = DIRECTION ( 'NONE',  ( 0.0000000000000000000, 1.000000000000000000, 0.0000000000000000000 ) ) ;
#29 = AXIS2_PLACEMENT_3D ( 'NONE', #184, #160, #242 ) ;
#30 = APPROVAL_DATE_TIME ( #48, #175 ) ;
#31 = PERSON_AND_ORGANIZATION ( #115, #62 ) ;
#32 = APPROVAL_DATE_TIME ( #212, #52 ) ;
#33 = CC_DESIGN_DATE_AND_TIME_ASSIGNMENT ( #92, #53, ( #205 ) ) ;
#34 = ORIENTED_EDGE ( 'NONE', *, *, #203, .F. ) ;
#35 = MANIFOLD_SOLID_BREP ( 'Corps-Déplacer/Copier1[1]', #154 ) ;
#36 = AXIS2_PLACEMENT_3D ( 'NONE', #101, #98, #202 ) ;
#37 = EDGE_LOOP ( 'NONE', ( #114 ) ) ;
#38 = APPROVAL_STATUS ( 'not_yet_approved' ) ;
#39 = EDGE_LOOP ( 'NONE', ( #196 ) ) ;
#40 = COORDINATED_UNIVERSAL_TIME_OFFSET ( 1, 0, .AHEAD. ) ;
#41 = EDGE_LOOP ( 'NONE', ( #192 ) ) ;
#42 = DIRECTION ( 'NONE',  ( 1.510825004591027679E-30, 1.000000000000000000, 4.327174794786742389E-16 ) ) ;
#43 = VERTEX_POINT ( 'NONE', #261 ) ;
#44 = DIRECTION ( 'NONE',  ( 0.0000000000000000000, 1.000000000000000000, 0.0000000000000000000 ) ) ;
#45 = FACE_OUTER_BOUND ( 'NONE', #17, .T. ) ;
#46 = AXIS2_PLACEMENT_3D ( 'NONE', #173, #90, #73 ) ;
#47 = DIRECTION ( 'NONE',  ( -5.312910191413054184E-31, -1.000000000000000000, -1.495451272393796338E-16 ) ) ;
#48 = DATE_AND_TIME ( #140, #146 ) ;
#49 =( LENGTH_UNIT ( ) NAMED_UNIT ( * ) SI_UNIT ( .MILLI., .METRE. ) );
#50 = CALENDAR_DATE ( 2021, 13, 10 ) ;
#51 = CIRCLE ( 'NONE', #70, 1.500000000000000000 ) ;
#52 = APPROVAL ( #145, 'UNSPECIFIED' ) ;
#53 = DATE_TIME_ROLE ( 'classification_date' ) ;
#54 = ORIENTED_EDGE ( 'NONE', *, *, #213, .T. ) ;
#55 = FACE_OUTER_BOUND ( 'NONE', #39, .T. ) ;
#56 = CIRCLE ( 'NONE', #208, 2.000000000000000000 ) ;
#57 = CARTESIAN_POINT ( 'NONE',  ( 1.745740669421566678E-13, -6.123233995736766085E-15, 50.00000000000000000 ) ) ;
#58 = ORIENTED_EDGE ( 'NONE', *, *, #10, .T. ) ;
#59 = DIRECTION ( 'NONE',  ( -3.491481338843133355E-15, 4.327174794786742882E-16, -1.000000000000000000 ) ) ;
#60 = EDGE_CURVE ( 'NONE', #81, #81, #51, .T. ) ;
#61 = CIRCLE ( 'NONE', #125, 1.450000000000002842 ) ;
#62 = ORGANIZATION ( 'UNSPECIFIED', 'UNSPECIFIED', '' ) ;
#63 = DIRECTION ( 'NONE',  ( 3.491481338843133355E-15, -4.327174794786742882E-16, 1.000000000000000000 ) ) ;
#64 = PLANE ( 'NONE',  #172 ) ;
#65 = EDGE_CURVE ( 'NONE', #143, #143, #223, .T. ) ;
#66 = PLANE ( 'NONE',  #180 ) ;
#67 = PERSON_AND_ORGANIZATION ( #115, #62 ) ;
#68 = ADVANCED_FACE ( 'NONE', ( #138, #241 ), #178, .T. ) ;
#69 = LOCAL_TIME ( 13, 35, 51.00000000000000000, #190 ) ;
#70 = AXIS2_PLACEMENT_3D ( 'NONE', #256, #182, #44 ) ;
#71 = COORDINATED_UNIVERSAL_TIME_OFFSET ( 1, 0, .AHEAD. ) ;
#72 = ORIENTED_EDGE ( 'NONE', *, *, #246, .T. ) ;
#73 = DIRECTION ( 'NONE',  ( 1.510825004591028030E-30, 1.000000000000000000, 4.327174794786743375E-16 ) ) ;
#74 = DATE_AND_TIME ( #50, #69 ) ;
#75 = EDGE_LOOP ( 'NONE', ( #95 ) ) ;
#76 = ADVANCED_FACE ( 'NONE', ( #136 ), #245, .F. ) ;
#77 = CARTESIAN_POINT ( 'NONE',  ( 5.586370142149013368E-14, -6.938893903907228378E-15, 16.00000000000000000 ) ) ;
#78 = DIRECTION ( 'NONE',  ( 3.491481338843133355E-15, -4.327174794786742882E-16, 1.000000000000000000 ) ) ;
#79 = CC_DESIGN_PERSON_AND_ORGANIZATION_ASSIGNMENT ( #113, #148, ( #205 ) ) ;
#80 = CARTESIAN_POINT ( 'NONE',  ( 5.586370142149013368E-14, -6.923479671658788611E-15, 16.00000000000000000 ) ) ;
#81 = VERTEX_POINT ( 'NONE', #86 ) ;
#82 = AXIS2_PLACEMENT_3D ( 'NONE', #181, #63, #85 ) ;
#83 = CARTESIAN_POINT ( 'NONE',  ( 3.840629472727446691E-14, -4.759892274265417170E-15, 11.00000000000000000 ) ) ;
#84 = FACE_BOUND ( 'NONE', #155, .T. ) ;
#85 = DIRECTION ( 'NONE',  ( 0.0000000000000000000, -1.000000000000000000, 0.0000000000000000000 ) ) ;
#86 = CARTESIAN_POINT ( 'NONE',  ( 1.745740669421566678E-13, 1.499999999999994005, 50.00000000000000000 ) ) ;
#87 = PERSON_AND_ORGANIZATION ( #115, #62 ) ;
#88 = PRODUCT_RELATED_PRODUCT_CATEGORY ( 'detail', '', ( #243 ) ) ;
#89 = PERSON_AND_ORGANIZATION ( #115, #62 ) ;
#90 = DIRECTION ( 'NONE',  ( -3.491481338843133355E-15, 4.327174794786742882E-16, -1.000000000000000000 ) ) ;
#91 = DIRECTION ( 'NONE',  ( 0.0000000000000000000, -1.000000000000000000, 0.0000000000000000000 ) ) ;
#92 = DATE_AND_TIME ( #13, #108 ) ;
#93 = EDGE_LOOP ( 'NONE', ( #232 ) ) ;
#94 = FACE_OUTER_BOUND ( 'NONE', #41, .T. ) ;
#95 = ORIENTED_EDGE ( 'NONE', *, *, #10, .F. ) ;
#96 = ADVANCED_FACE ( 'NONE', ( #84, #199 ), #142, .T. ) ;
#97 = DIRECTION ( 'NONE',  ( 3.491481338843133355E-15, -1.224646799147353207E-16, 1.000000000000000000 ) ) ;
#98 = DIRECTION ( 'NONE',  ( -3.491481338843133355E-15, 1.224646799147353207E-16, -1.000000000000000000 ) ) ;
#99 = FACE_OUTER_BOUND ( 'NONE', #37, .T. ) ;
#100 = AXIS2_PLACEMENT_3D ( 'NONE', #174, #78, #91 ) ;
#101 = CARTESIAN_POINT ( 'NONE',  ( 3.840629472727446691E-14, -4.759892274265417170E-15, 11.00000000000000000 ) ) ;
#102 = CARTESIAN_POINT ( 'NONE',  ( 0.0000000000000000000, 0.0000000000000000000, 0.0000000000000000000 ) ) ;
#103 = AXIS2_PLACEMENT_3D ( 'NONE', #123, #248, #188 ) ;
#104 = ADVANCED_FACE ( 'NONE', ( #220 ), #207, .T. ) ;
#105 = PERSON_AND_ORGANIZATION ( #115, #62 ) ;
#106 = PERSON_AND_ORGANIZATION_ROLE ( 'design_supplier' ) ;
#107 = UNCERTAINTY_MEASURE_WITH_UNIT (LENGTH_MEASURE( 1.000000000000000082E-05 ), #49, 'distance_accuracy_value', 'NONE');
#108 = LOCAL_TIME ( 13, 35, 51.00000000000000000, #40 ) ;
#109 = PERSON_AND_ORGANIZATION ( #115, #62 ) ;
#110 = ADVANCED_FACE ( 'NONE', ( #219 ), #66, .F. ) ;
#111 = EDGE_LOOP ( 'NONE', ( #252 ) ) ;
#112 = EDGE_LOOP ( 'NONE', ( #217 ) ) ;
#113 = PERSON_AND_ORGANIZATION ( #115, #62 ) ;
#114 = ORIENTED_EDGE ( 'NONE', *, *, #65, .F. ) ;
#115 = PERSON ( 'UNSPECIFIED', 'UNSPECIFIED', 'UNSPECIFIED', ('UNSPECIFIED'), ('UNSPECIFIED'), ('UNSPECIFIED') ) ;
#116 = CARTESIAN_POINT ( 'NONE',  ( 1.842653157210500964E-15, -6.463157244495845299E-17, 0.5277568396860013999 ) ) ;
#117 = DIRECTION ( 'NONE',  ( 0.0000000000000000000, 1.000000000000000000, 0.0000000000000000000 ) ) ;
#118 = DIRECTION ( 'NONE',  ( -3.491481338843133355E-15, 1.224646799147353207E-16, -1.000000000000000000 ) ) ;
#119 = CC_DESIGN_PERSON_AND_ORGANIZATION_ASSIGNMENT ( #31, #106, ( #235 ) ) ;
#120 = APPROVAL_PERSON_ORGANIZATION ( #89, #175, #250 ) ;
#121 = CONICAL_SURFACE ( 'NONE', #231, 1.500000000000000000, 0.7853981633974479459 ) ;
#122 = DIRECTION ( 'NONE',  ( -3.491481338843133355E-15, 4.327174794786742882E-16, -1.000000000000000000 ) ) ;
#123 = CARTESIAN_POINT ( 'NONE',  ( 0.0000000000000000000, 0.0000000000000000000, 0.0000000000000000000 ) ) ;
#124 = LOCAL_TIME ( 13, 35, 51.00000000000000000, #226 ) ;
#125 = AXIS2_PLACEMENT_3D ( 'NONE', #116, #198, #47 ) ;
#126 = AXIS2_PLACEMENT_3D ( 'NONE', #80, #122, #28 ) ;
#127 =( NAMED_UNIT ( * ) SI_UNIT ( $, .STERADIAN. ) SOLID_ANGLE_UNIT ( ) );
#128 = APPROVAL_ROLE ( '' ) ;
#129 = EDGE_LOOP ( 'NONE', ( #131 ) ) ;
#130 = AXIS2_PLACEMENT_3D ( 'NONE', #102, #201, #27 ) ;
#131 = ORIENTED_EDGE ( 'NONE', *, *, #60, .T. ) ;
#132 = DIRECTION ( 'NONE',  ( -3.491481338843133355E-15, 4.327174794786742882E-16, -1.000000000000000000 ) ) ;
#133 = FACE_OUTER_BOUND ( 'NONE', #111, .T. ) ;
#134 =( GEOMETRIC_REPRESENTATION_CONTEXT ( 3 ) GLOBAL_UNCERTAINTY_ASSIGNED_CONTEXT ( ( #107 ) ) GLOBAL_UNIT_ASSIGNED_CONTEXT ( ( #49, #164, #127 ) ) REPRESENTATION_CONTEXT ( 'NONE', 'WORKASPACE' ) );
#135 = VERTEX_POINT ( 'NONE', #218 ) ;
#136 = FACE_OUTER_BOUND ( 'NONE', #177, .T. ) ;
#137 = APPROVAL ( #38, 'UNSPECIFIED' ) ;
#138 = FACE_OUTER_BOUND ( 'NONE', #259, .T. ) ;
#139 = CARTESIAN_POINT ( 'NONE',  ( 2.541590561669644070E-15, -8.914699647580431220E-17, 0.7279404685324121216 ) ) ;
#140 = CALENDAR_DATE ( 2021, 13, 10 ) ;
#141 = CALENDAR_DATE ( 2021, 13, 10 ) ;
#142 = CONICAL_SURFACE ( 'NONE', #82, 2.500000000000007105, 0.2617993877991504625 ) ;
#143 = VERTEX_POINT ( 'NONE', #167 ) ;
#144 = CC_DESIGN_DATE_AND_TIME_ASSIGNMENT ( #12, #206, ( #234 ) ) ;
#145 = APPROVAL_STATUS ( 'not_yet_approved' ) ;
#146 = LOCAL_TIME ( 13, 35, 51.00000000000000000, #71 ) ;
#147 = TOROIDAL_SURFACE ( 'NONE', #21, 2.450000000000005063, 1.000000000000000000 ) ;
#148 = PERSON_AND_ORGANIZATION_ROLE ( 'classification_officer' ) ;
#149 = EDGE_CURVE ( 'NONE', #165, #165, #61, .T. ) ;
#150 = ORIENTED_EDGE ( 'NONE', *, *, #213, .F. ) ;
#151 = APPROVAL_ROLE ( '' ) ;
#152 = DIRECTION ( 'NONE',  ( 0.0000000000000000000, 1.000000000000000000, 0.0000000000000000000 ) ) ;
#153 = EDGE_LOOP ( 'NONE', ( #34 ) ) ;
#154 = CLOSED_SHELL ( 'NONE', ( #159, #3, #110, #68, #96, #24, #76 ) ) ;
#155 = EDGE_LOOP ( 'NONE', ( #214 ) ) ;
#156 = DIRECTION ( 'NONE',  ( -3.491481338843133355E-15, 4.327174794786742882E-16, -1.000000000000000000 ) ) ;
#157 = LOCAL_TIME ( 13, 35, 51.00000000000000000, #166 ) ;
#158 = DIRECTION ( 'NONE',  ( -3.491481338843133355E-15, 1.224646799147353207E-16, -1.000000000000000000 ) ) ;
#159 = ADVANCED_FACE ( 'NONE', ( #45, #22 ), #179, .T. ) ;
#160 = DIRECTION ( 'NONE',  ( 3.491481338843133355E-15, -1.224646799147353207E-16, 1.000000000000000000 ) ) ;
#161 = CARTESIAN_POINT ( 'NONE',  ( 1.745740669421566678E-13, 1.124819836996384174E-32, 50.00000000000000000 ) ) ;
#162 = CC_DESIGN_PERSON_AND_ORGANIZATION_ASSIGNMENT ( #105, #6, ( #235 ) ) ;
#163 = DIRECTION ( 'NONE',  ( -3.851859888774483092E-31, -1.000000000000000000, -1.084202172485507639E-16 ) ) ;
#164 =( NAMED_UNIT ( * ) PLANE_ANGLE_UNIT ( ) SI_UNIT ( $, .RADIAN. ) );
#165 = VERTEX_POINT ( 'NONE', #228 ) ;
#166 = COORDINATED_UNIVERSAL_TIME_OFFSET ( 1, 0, .AHEAD. ) ;
#167 = CARTESIAN_POINT ( 'NONE',  ( 3.840629472727446691E-14, -1.450000000000007727, 11.00000000000000000 ) ) ;
#168 = APPLICATION_CONTEXT ( 'configuration controlled 3d designs of mechanical parts and assemblies' ) ;
#169 = VERTEX_POINT ( 'NONE', #204 ) ;
#170 = CC_DESIGN_PERSON_AND_ORGANIZATION_ASSIGNMENT ( #109, #189, ( #234 ) ) ;
#171 = CARTESIAN_POINT ( 'NONE',  ( 5.676736328760279737E-14, -7.035475196496629834E-15, 16.25881904510252340 ) ) ;
#172 = AXIS2_PLACEMENT_3D ( 'NONE', #224, #97, #260 ) ;
#173 = CARTESIAN_POINT ( 'NONE',  ( 0.0000000000000000000, 0.0000000000000000000, 0.0000000000000000000 ) ) ;
#174 = CARTESIAN_POINT ( 'NONE',  ( 6.349007582266114180E-14, -7.868655998887517862E-15, 18.18428044175024283 ) ) ;
#175 = APPROVAL ( #209, 'UNSPECIFIED' ) ;
#176 = AXIS2_PLACEMENT_3D ( 'NONE', #244, #156, #262 ) ;
#177 = EDGE_LOOP ( 'NONE', ( #215 ) ) ;
#178 = CYLINDRICAL_SURFACE ( 'NONE', #176, 1.450000000000002842 ) ;
#179 = CYLINDRICAL_SURFACE ( 'NONE', #130, 1.999999999999997335 ) ;
#180 = AXIS2_PLACEMENT_3D ( 'NONE', #161, #118, #238 ) ;
#181 = CARTESIAN_POINT ( 'NONE',  ( 7.000526869778182996E-14, -8.676117808256308817E-15, 20.05030584553470874 ) ) ;
#182 = DIRECTION ( 'NONE',  ( -3.491481338843133355E-15, 1.224646799147353207E-16, -1.000000000000000000 ) ) ;
#183 = APPLICATION_CONTEXT ( 'configuration controlled 3d designs of mechanical parts and assemblies' ) ;
#184 = CARTESIAN_POINT ( 'NONE',  ( 3.840629472727446691E-14, 1.499759782661852408E-32, 11.00000000000000000 ) ) ;
#185 = MECHANICAL_CONTEXT ( 'NONE', #168, 'mechanical' ) ;
#186 = PERSON_AND_ORGANIZATION_ROLE ( 'design_owner' ) ;
#187 = SECURITY_CLASSIFICATION_LEVEL ( 'unclassified' ) ;
#188 = DIRECTION ( 'NONE',  ( 1.000000000000000000, 0.0000000000000000000, 0.0000000000000000000 ) ) ;
#189 = PERSON_AND_ORGANIZATION_ROLE ( 'creator' ) ;
#190 = COORDINATED_UNIVERSAL_TIME_OFFSET ( 1, 0, .AHEAD. ) ;
#191 = FACE_OUTER_BOUND ( 'NONE', #237, .T. ) ;
#192 = ORIENTED_EDGE ( 'NONE', *, *, #65, .T. ) ;
#193 = PERSON_AND_ORGANIZATION ( #115, #62 ) ;
#194 = ORIENTED_EDGE ( 'NONE', *, *, #246, .F. ) ;
#195 = PRODUCT_DEFINITION_SHAPE ( 'NONE', 'NONE',  #234 ) ;
#196 = ORIENTED_EDGE ( 'NONE', *, *, #20, .T. ) ;
#197 = FACE_BOUND ( 'NONE', #129, .T. ) ;
#198 = DIRECTION ( 'NONE',  ( -3.491481338843133355E-15, 1.224646799147353207E-16, -1.000000000000000000 ) ) ;
#199 = FACE_OUTER_BOUND ( 'NONE', #75, .T. ) ;
#200 = DIRECTION ( 'NONE',  ( 0.0000000000000000000, -1.000000000000000000, 0.0000000000000000000 ) ) ;
#201 = DIRECTION ( 'NONE',  ( -3.491481338843133355E-15, 1.224646799147353207E-16, -1.000000000000000000 ) ) ;
#202 = DIRECTION ( 'NONE',  ( 0.0000000000000000000, -1.000000000000000000, 0.0000000000000000000 ) ) ;
#203 = EDGE_CURVE ( 'NONE', #230, #230, #26, .T. ) ;
#204 = CARTESIAN_POINT ( 'NONE',  ( 5.586370142149013368E-14, 1.449999999999998623, 16.00000000000000000 ) ) ;
#205 = SECURITY_CLASSIFICATION ( '', '', #187 ) ;
#206 = DATE_TIME_ROLE ( 'creation_date' ) ;
#207 = CONICAL_SURFACE ( 'NONE', #239, 1.999999999999994005, 1.221730476396026388 ) ;
#208 = AXIS2_PLACEMENT_3D ( 'NONE', #263, #25, #117 ) ;
#209 = APPROVAL_STATUS ( 'not_yet_approved' ) ;
#210 = MANIFOLD_SOLID_BREP ( 'Corps-Déplacer/Copier1[2]', #236 ) ;
#211 = VERTEX_POINT ( 'NONE', #225 ) ;
#212 = DATE_AND_TIME ( #5, #124 ) ;
#213 = EDGE_CURVE ( 'NONE', #211, #211, #56, .T. ) ;
#214 = ORIENTED_EDGE ( 'NONE', *, *, #20, .F. ) ;
#215 = ORIENTED_EDGE ( 'NONE', *, *, #203, .T. ) ;
#216 = DIRECTION ( 'NONE',  ( -3.491481338843133355E-15, 1.224646799147353207E-16, -1.000000000000000000 ) ) ;
#217 = ORIENTED_EDGE ( 'NONE', *, *, #60, .F. ) ;
#218 = CARTESIAN_POINT ( 'NONE',  ( 6.349007582266114180E-14, -2.000000000000005329, 18.18428044175024283 ) ) ;
#219 = FACE_OUTER_BOUND ( 'NONE', #112, .T. ) ;
#220 = FACE_OUTER_BOUND ( 'NONE', #93, .T. ) ;
#221 = ADVANCED_BREP_SHAPE_REPRESENTATION ( '43308', ( #35, #210, #103 ), #134 ) ;
#222 = ADVANCED_FACE ( 'NONE', ( #99 ), #64, .T. ) ;
#223 = CIRCLE ( 'NONE', #4, 1.450000000000002842 ) ;
#224 = CARTESIAN_POINT ( 'NONE',  ( 3.840629472727446691E-14, 1.499759782661852408E-32, 11.00000000000000000 ) ) ;
#225 = CARTESIAN_POINT ( 'NONE',  ( 1.728283262727351074E-13, 1.999999999999994005, 49.50000000000000000 ) ) ;
#226 = COORDINATED_UNIVERSAL_TIME_OFFSET ( 1, 0, .AHEAD. ) ;
#227 = CC_DESIGN_APPROVAL ( #175, ( #235 ) ) ;
#228 = CARTESIAN_POINT ( 'NONE',  ( 1.842653157210500175E-15, -1.450000000000002842, 0.5277568396860011779 ) ) ;
#229 = CARTESIAN_POINT ( 'NONE',  ( 3.840629472727446691E-14, -1.450000000000007727, 11.00000000000000000 ) ) ;
#230 = VERTEX_POINT ( 'NONE', #229 ) ;
#231 = AXIS2_PLACEMENT_3D ( 'NONE', #57, #216, #254 ) ;
#232 = ORIENTED_EDGE ( 'NONE', *, *, #149, .T. ) ;
#233 = FACE_OUTER_BOUND ( 'NONE', #255, .T. ) ;
#234 = PRODUCT_DEFINITION ( 'UNKNOWN', '', #235, #11 ) ;
#235 = PRODUCT_DEFINITION_FORMATION_WITH_SPECIFIED_SOURCE ( 'ANY', '', #243, .NOT_KNOWN. ) ;
#236 = CLOSED_SHELL ( 'NONE', ( #104, #15, #222 ) ) ;
#237 = EDGE_LOOP ( 'NONE', ( #150 ) ) ;
#238 = DIRECTION ( 'NONE',  ( 4.275831445896958607E-31, 1.000000000000000000, 1.224646799147353207E-16 ) ) ;
#239 = AXIS2_PLACEMENT_3D ( 'NONE', #139, #23, #163 ) ;
#240 = APPROVAL_PERSON_ORGANIZATION ( #87, #52, #128 ) ;
#241 = FACE_OUTER_BOUND ( 'NONE', #153, .T. ) ;
#242 = DIRECTION ( 'NONE',  ( -4.275831445896958607E-31, -1.000000000000000000, -1.224646799147353207E-16 ) ) ;
#243 = PRODUCT ( '43308', '43308', '', ( #185 ) ) ;
#244 = CARTESIAN_POINT ( 'NONE',  ( 0.0000000000000000000, 0.0000000000000000000, 0.0000000000000000000 ) ) ;
#245 = PLANE ( 'NONE',  #29 ) ;
#246 = EDGE_CURVE ( 'NONE', #169, #169, #253, .T. ) ;
#247 = APPLICATION_PROTOCOL_DEFINITION ( 'international standard', 'config_control_design', 1994, #183 ) ;
#248 = DIRECTION ( 'NONE',  ( 0.0000000000000000000, 0.0000000000000000000, 1.000000000000000000 ) ) ;
#249 = CIRCLE ( 'NONE', #257, 1.484074173710937306 ) ;
#250 = APPROVAL_ROLE ( '' ) ;
#251 = CC_DESIGN_APPROVAL ( #137, ( #205 ) ) ;
#252 = ORIENTED_EDGE ( 'NONE', *, *, #149, .F. ) ;
#253 = CIRCLE ( 'NONE', #126, 1.450000000000005507 ) ;
#254 = DIRECTION ( 'NONE',  ( 0.0000000000000000000, 1.000000000000000000, 0.0000000000000000000 ) ) ;
#255 = EDGE_LOOP ( 'NONE', ( #194 ) ) ;
#256 = CARTESIAN_POINT ( 'NONE',  ( 1.745740669421566678E-13, -6.123233995736766085E-15, 50.00000000000000000 ) ) ;
#257 = AXIS2_PLACEMENT_3D ( 'NONE', #171, #132, #152 ) ;
#258 = CC_DESIGN_PERSON_AND_ORGANIZATION_ASSIGNMENT ( #67, #186, ( #243 ) ) ;
#259 = EDGE_LOOP ( 'NONE', ( #72 ) ) ;
#260 = DIRECTION ( 'NONE',  ( -4.275831445896958607E-31, -1.000000000000000000, -1.224646799147353207E-16 ) ) ;
#261 = CARTESIAN_POINT ( 'NONE',  ( 5.676736328760279737E-14, 1.484074173710930422, 16.25881904510252340 ) ) ;
#262 = DIRECTION ( 'NONE',  ( 1.510825004591028030E-30, 1.000000000000000000, 4.327174794786743375E-16 ) ) ;
#263 = CARTESIAN_POINT ( 'NONE',  ( 1.728283262727351074E-13, -6.062001655779398511E-15, 49.50000000000000000 ) ) ;
ENDSEC;
END-ISO-10303-21;
