ISO-10303-21;
HEADER;
FILE_DESCRIPTION (( 'STEP AP203' ),
    '1' );
FILE_NAME ('43307.step',
    '2021-10-13T11:35:50',
    ( '' ),
    ( '' ),
    'SwSTEP 2.0',
    'SolidWorks 2019',
    '' );
FILE_SCHEMA (( 'CONFIG_CONTROL_DESIGN' ));
ENDSEC;

DATA;
#1 = FACE_OUTER_BOUND ( 'NONE', #71, .T. ) ;
#2 = DIRECTION ( 'NONE',  ( 3.491481338843133355E-15, -1.224646799147353207E-16, 1.000000000000000000 ) ) ;
#3 = CONICAL_SURFACE ( 'NONE', #30, 1.500000000000000000, 0.7853981633974479459 ) ;
#4 = PRODUCT ( '43307', '43307', '', ( #252 ) ) ;
#5 = DIRECTION ( 'NONE',  ( 0.0000000000000000000, 0.0000000000000000000, 1.000000000000000000 ) ) ;
#6 = PRODUCT_DEFINITION_FORMATION_WITH_SPECIFIED_SOURCE ( 'ANY', '', #4, .NOT_KNOWN. ) ;
#7 = ORIENTED_EDGE ( 'NONE', *, *, #99, .T. ) ;
#8 = CARTESIAN_POINT ( 'NONE',  ( 7.130830727280595750E-14, -8.837610170130063852E-15, 20.42351092629159837 ) ) ;
#9 = CARTESIAN_POINT ( 'NONE',  ( 3.840629472727446691E-14, -4.759892274265417170E-15, 11.00000000000000000 ) ) ;
#10 = AXIS2_PLACEMENT_3D ( 'NONE', #153, #195, #158 ) ;
#11 = PLANE ( 'NONE',  #27 ) ;
#12 = DIRECTION ( 'NONE',  ( -3.491481338843133355E-15, 4.327174794786742882E-16, -1.000000000000000000 ) ) ;
#13 = CC_DESIGN_PERSON_AND_ORGANIZATION_ASSIGNMENT ( #127, #130, ( #6 ) ) ;
#14 = CARTESIAN_POINT ( 'NONE',  ( 3.840629472727446691E-14, -1.350000000000007638, 11.00000000000000000 ) ) ;
#15 = DIRECTION ( 'NONE',  ( 0.0000000000000000000, 1.000000000000000000, 0.0000000000000000000 ) ) ;
#16 = PERSON ( 'UNSPECIFIED', 'UNSPECIFIED', 'UNSPECIFIED', ('UNSPECIFIED'), ('UNSPECIFIED'), ('UNSPECIFIED') ) ;
#17 = AXIS2_PLACEMENT_3D ( 'NONE', #105, #12, #193 ) ;
#18 = DIRECTION ( 'NONE',  ( -4.275831445896958607E-31, -1.000000000000000000, -1.224646799147353207E-16 ) ) ;
#19 = VERTEX_POINT ( 'NONE', #263 ) ;
#20 = CARTESIAN_POINT ( 'NONE',  ( 6.479311439768525671E-14, -2.000000000000005773, 18.55748552250712891 ) ) ;
#21 = ORIENTED_EDGE ( 'NONE', *, *, #115, .T. ) ;
#22 = CALENDAR_DATE ( 2021, 13, 10 ) ;
#23 = APPROVAL_ROLE ( '' ) ;
#24 = CARTESIAN_POINT ( 'NONE',  ( 1.728283262727351074E-13, -6.062001655779398511E-15, 49.50000000000000000 ) ) ;
#25 = DATE_AND_TIME ( #212, #54 ) ;
#26 = FACE_BOUND ( 'NONE', #209, .T. ) ;
#27 = AXIS2_PLACEMENT_3D ( 'NONE', #28, #68, #88 ) ;
#28 = CARTESIAN_POINT ( 'NONE',  ( 1.745740669421566678E-13, 1.124819836996384174E-32, 50.00000000000000000 ) ) ;
#29 = DIRECTION ( 'NONE',  ( -4.275831445896958607E-31, -1.000000000000000000, -1.224646799147353207E-16 ) ) ;
#30 = AXIS2_PLACEMENT_3D ( 'NONE', #178, #234, #135 ) ;
#31 = LOCAL_TIME ( 13, 35, 50.00000000000000000, #145 ) ;
#32 = DIRECTION ( 'NONE',  ( 3.491481338843133355E-15, -4.327174794786742882E-16, 1.000000000000000000 ) ) ;
#33 = VERTEX_POINT ( 'NONE', #113 ) ;
#34 = UNCERTAINTY_MEASURE_WITH_UNIT (LENGTH_MEASURE( 1.000000000000000082E-05 ), #35, 'distance_accuracy_value', 'NONE');
#35 =( LENGTH_UNIT ( ) NAMED_UNIT ( * ) SI_UNIT ( .MILLI., .METRE. ) );
#36 = CARTESIAN_POINT ( 'NONE',  ( 1.728283262727351074E-13, 1.999999999999994005, 49.50000000000000000 ) ) ;
#37 = DIRECTION ( 'NONE',  ( -3.491481338843133355E-15, 4.327174794786742882E-16, -1.000000000000000000 ) ) ;
#38 = CC_DESIGN_SECURITY_CLASSIFICATION ( #240, ( #6 ) ) ;
#39 = CONICAL_SURFACE ( 'NONE', #73, 1.999999999999994005, 1.221730476396026388 ) ;
#40 = EDGE_LOOP ( 'NONE', ( #248 ) ) ;
#41 = EDGE_CURVE ( 'NONE', #19, #19, #199, .T. ) ;
#42 = ORIENTED_EDGE ( 'NONE', *, *, #262, .F. ) ;
#43 = DATE_AND_TIME ( #63, #150 ) ;
#44 = CC_DESIGN_PERSON_AND_ORGANIZATION_ASSIGNMENT ( #67, #48, ( #240 ) ) ;
#45 = COORDINATED_UNIVERSAL_TIME_OFFSET ( 1, 0, .AHEAD. ) ;
#46 = SHAPE_DEFINITION_REPRESENTATION ( #251, #98 ) ;
#47 = DIRECTION ( 'NONE',  ( -3.491481338843133355E-15, 1.224646799147353207E-16, -1.000000000000000000 ) ) ;
#48 = PERSON_AND_ORGANIZATION_ROLE ( 'classification_officer' ) ;
#49 = ADVANCED_FACE ( 'NONE', ( #238, #69 ), #3, .T. ) ;
#50 = DIRECTION ( 'NONE',  ( 3.491481338843133355E-15, -1.224646799147353207E-16, 1.000000000000000000 ) ) ;
#51 = AXIS2_PLACEMENT_3D ( 'NONE', #91, #120, #18 ) ;
#52 = EDGE_LOOP ( 'NONE', ( #254 ) ) ;
#53 = DIRECTION ( 'NONE',  ( -3.491481338843133355E-15, 1.224646799147353207E-16, -1.000000000000000000 ) ) ;
#54 = LOCAL_TIME ( 13, 35, 50.00000000000000000, #45 ) ;
#55 = CARTESIAN_POINT ( 'NONE',  ( 1.745740669421566678E-13, -6.123233995736766085E-15, 50.00000000000000000 ) ) ;
#56 = DIRECTION ( 'NONE',  ( 4.275831445896959482E-31, 1.000000000000000000, 1.224646799147353454E-16 ) ) ;
#57 = ADVANCED_FACE ( 'NONE', ( #221 ), #239, .T. ) ;
#58 = DIRECTION ( 'NONE',  ( 1.510825004591027855E-30, 1.000000000000000000, 4.327174794786742882E-16 ) ) ;
#59 = PERSON_AND_ORGANIZATION ( #16, #97 ) ;
#60 = DATE_AND_TIME ( #190, #104 ) ;
#61 = EDGE_LOOP ( 'NONE', ( #123 ) ) ;
#62 =( GEOMETRIC_REPRESENTATION_CONTEXT ( 3 ) GLOBAL_UNCERTAINTY_ASSIGNED_CONTEXT ( ( #34 ) ) GLOBAL_UNIT_ASSIGNED_CONTEXT ( ( #35, #167, #163 ) ) REPRESENTATION_CONTEXT ( 'NONE', 'WORKASPACE' ) );
#63 = CALENDAR_DATE ( 2021, 13, 10 ) ;
#64 = APPROVAL_STATUS ( 'not_yet_approved' ) ;
#65 = EDGE_LOOP ( 'NONE', ( #215 ) ) ;
#66 = EDGE_CURVE ( 'NONE', #227, #227, #186, .T. ) ;
#67 = PERSON_AND_ORGANIZATION ( #16, #97 ) ;
#68 = DIRECTION ( 'NONE',  ( -3.491481338843133355E-15, 1.224646799147353207E-16, -1.000000000000000000 ) ) ;
#69 = FACE_BOUND ( 'NONE', #256, .T. ) ;
#70 = ORIENTED_EDGE ( 'NONE', *, *, #92, .F. ) ;
#71 = EDGE_LOOP ( 'NONE', ( #156 ) ) ;
#72 = CARTESIAN_POINT ( 'NONE',  ( 5.586370142149013368E-14, -6.923479671658788611E-15, 16.00000000000000000 ) ) ;
#73 = AXIS2_PLACEMENT_3D ( 'NONE', #222, #2, #96 ) ;
#74 = EDGE_CURVE ( 'NONE', #187, #187, #141, .T. ) ;
#75 = CARTESIAN_POINT ( 'NONE',  ( 0.0000000000000000000, 0.0000000000000000000, 0.0000000000000000000 ) ) ;
#76 = AXIS2_PLACEMENT_3D ( 'NONE', #237, #50, #29 ) ;
#77 = CC_DESIGN_DATE_AND_TIME_ASSIGNMENT ( #25, #169, ( #257 ) ) ;
#78 = PLANE ( 'NONE',  #51 ) ;
#79 = AXIS2_PLACEMENT_3D ( 'NONE', #55, #142, #15 ) ;
#80 = ORIENTED_EDGE ( 'NONE', *, *, #92, .T. ) ;
#81 = CC_DESIGN_APPROVAL ( #160, ( #6 ) ) ;
#82 = APPROVAL_DATE_TIME ( #60, #219 ) ;
#83 = FACE_OUTER_BOUND ( 'NONE', #200, .T. ) ;
#84 = DIRECTION ( 'NONE',  ( 1.000000000000000000, 0.0000000000000000000, 0.0000000000000000000 ) ) ;
#85 = FACE_OUTER_BOUND ( 'NONE', #52, .T. ) ;
#86 = APPROVAL_STATUS ( 'not_yet_approved' ) ;
#87 = EDGE_LOOP ( 'NONE', ( #7 ) ) ;
#88 = DIRECTION ( 'NONE',  ( 4.275831445896958607E-31, 1.000000000000000000, 1.224646799147353207E-16 ) ) ;
#89 = DIRECTION ( 'NONE',  ( -3.491481338843133355E-15, 1.224646799147353207E-16, -1.000000000000000000 ) ) ;
#90 = FACE_OUTER_BOUND ( 'NONE', #40, .T. ) ;
#91 = CARTESIAN_POINT ( 'NONE',  ( 3.840629472727446691E-14, 1.499759782661852408E-32, 11.00000000000000000 ) ) ;
#92 = EDGE_CURVE ( 'NONE', #33, #33, #102, .T. ) ;
#93 = AXIS2_PLACEMENT_3D ( 'NONE', #182, #37, #58 ) ;
#94 = DIRECTION ( 'NONE',  ( -3.491481338843133355E-15, 4.327174794786742882E-16, -1.000000000000000000 ) ) ;
#95 = CYLINDRICAL_SURFACE ( 'NONE', #188, 1.999999999999997335 ) ;
#96 = DIRECTION ( 'NONE',  ( -3.851859888774483092E-31, -1.000000000000000000, -1.084202172485507639E-16 ) ) ;
#97 = ORGANIZATION ( 'UNSPECIFIED', 'UNSPECIFIED', '' ) ;
#98 = ADVANCED_BREP_SHAPE_REPRESENTATION ( '43307', ( #117, #114, #192 ), #62 ) ;
#99 = EDGE_CURVE ( 'NONE', #243, #243, #194, .T. ) ;
#100 = DATE_AND_TIME ( #152, #122 ) ;
#101 = APPROVAL_DATE_TIME ( #43, #160 ) ;
#102 = CIRCLE ( 'NONE', #204, 1.350000000000002975 ) ;
#103 = DIRECTION ( 'NONE',  ( 0.0000000000000000000, 1.000000000000000000, 0.0000000000000000000 ) ) ;
#104 = LOCAL_TIME ( 13, 35, 50.00000000000000000, #171 ) ;
#105 = CARTESIAN_POINT ( 'NONE',  ( 5.676736328760279737E-14, -7.035475196496629834E-15, 16.25881904510252340 ) ) ;
#106 = AXIS2_PLACEMENT_3D ( 'NONE', #9, #89, #259 ) ;
#107 = CARTESIAN_POINT ( 'NONE',  ( 0.0000000000000000000, 0.0000000000000000000, 0.0000000000000000000 ) ) ;
#108 = CYLINDRICAL_SURFACE ( 'NONE', #236, 1.350000000000002975 ) ;
#109 = CARTESIAN_POINT ( 'NONE',  ( 6.479311439768525671E-14, -8.030148360761274476E-15, 18.55748552250712891 ) ) ;
#110 = CLOSED_SHELL ( 'NONE', ( #196, #177, #57 ) ) ;
#111 = APPROVAL_PERSON_ORGANIZATION ( #151, #166, #232 ) ;
#112 = EDGE_LOOP ( 'NONE', ( #159 ) ) ;
#113 = CARTESIAN_POINT ( 'NONE',  ( 3.840629472727446691E-14, -1.350000000000007638, 11.00000000000000000 ) ) ;
#114 = MANIFOLD_SOLID_BREP ( 'Corps-Déplacer/Copier1[2]', #110 ) ;
#115 = EDGE_CURVE ( 'NONE', #201, #201, #118, .T. ) ;
#116 = FACE_OUTER_BOUND ( 'NONE', #180, .T. ) ;
#117 = MANIFOLD_SOLID_BREP ( 'Corps-Déplacer/Copier1[1]', #231 ) ;
#118 = CIRCLE ( 'NONE', #106, 1.350000000000002975 ) ;
#119 = DIRECTION ( 'NONE',  ( 0.0000000000000000000, 1.000000000000000000, 0.0000000000000000000 ) ) ;
#120 = DIRECTION ( 'NONE',  ( 3.491481338843133355E-15, -1.224646799147353207E-16, 1.000000000000000000 ) ) ;
#121 = DATE_AND_TIME ( #22, #31 ) ;
#122 = LOCAL_TIME ( 13, 35, 50.00000000000000000, #125 ) ;
#123 = ORIENTED_EDGE ( 'NONE', *, *, #74, .F. ) ;
#124 = SECURITY_CLASSIFICATION_LEVEL ( 'unclassified' ) ;
#125 = COORDINATED_UNIVERSAL_TIME_OFFSET ( 1, 0, .AHEAD. ) ;
#126 = ORIENTED_EDGE ( 'NONE', *, *, #99, .F. ) ;
#127 = PERSON_AND_ORGANIZATION ( #16, #97 ) ;
#128 = APPLICATION_CONTEXT ( 'configuration controlled 3d designs of mechanical parts and assemblies' ) ;
#129 = EDGE_LOOP ( 'NONE', ( #70 ) ) ;
#130 = PERSON_AND_ORGANIZATION_ROLE ( 'creator' ) ;
#131 = CC_DESIGN_PERSON_AND_ORGANIZATION_ASSIGNMENT ( #247, #233, ( #4 ) ) ;
#132 = EDGE_LOOP ( 'NONE', ( #21 ) ) ;
#133 = AXIS2_PLACEMENT_3D ( 'NONE', #72, #226, #119 ) ;
#134 = ORIENTED_EDGE ( 'NONE', *, *, #203, .T. ) ;
#135 = DIRECTION ( 'NONE',  ( 0.0000000000000000000, 1.000000000000000000, 0.0000000000000000000 ) ) ;
#136 = AXIS2_PLACEMENT_3D ( 'NONE', #24, #53, #103 ) ;
#137 = APPROVAL_PERSON_ORGANIZATION ( #228, #219, #173 ) ;
#138 = FACE_OUTER_BOUND ( 'NONE', #65, .T. ) ;
#139 = DESIGN_CONTEXT ( 'detailed design', #128, 'design' ) ;
#140 = CARTESIAN_POINT ( 'NONE',  ( 5.586370142149013368E-14, 1.349999999999998535, 16.00000000000000000 ) ) ;
#141 = CIRCLE ( 'NONE', #136, 2.000000000000000000 ) ;
#142 = DIRECTION ( 'NONE',  ( -3.491481338843133355E-15, 1.224646799147353207E-16, -1.000000000000000000 ) ) ;
#143 = CC_DESIGN_DATE_AND_TIME_ASSIGNMENT ( #121, #154, ( #240 ) ) ;
#144 = CARTESIAN_POINT ( 'NONE',  ( 5.676736328760279737E-14, 1.384074173710930111, 16.25881904510252340 ) ) ;
#145 = COORDINATED_UNIVERSAL_TIME_OFFSET ( 1, 0, .AHEAD. ) ;
#146 = COORDINATED_UNIVERSAL_TIME_OFFSET ( 1, 0, .AHEAD. ) ;
#147 = ADVANCED_FACE ( 'NONE', ( #83 ), #11, .F. ) ;
#148 = TOROIDAL_SURFACE ( 'NONE', #93, 2.350000000000004974, 1.000000000000000000 ) ;
#149 = ORIENTED_EDGE ( 'NONE', *, *, #66, .T. ) ;
#150 = LOCAL_TIME ( 13, 35, 50.00000000000000000, #146 ) ;
#151 = PERSON_AND_ORGANIZATION ( #16, #97 ) ;
#152 = CALENDAR_DATE ( 2021, 13, 10 ) ;
#153 = CARTESIAN_POINT ( 'NONE',  ( 1.715573629127018445E-15, -6.017422262116821272E-17, 0.4913598162593806329 ) ) ;
#154 = DATE_TIME_ROLE ( 'classification_date' ) ;
#155 = EDGE_LOOP ( 'NONE', ( #42 ) ) ;
#156 = ORIENTED_EDGE ( 'NONE', *, *, #115, .F. ) ;
#157 = CIRCLE ( 'NONE', #79, 1.500000000000000000 ) ;
#158 = DIRECTION ( 'NONE',  ( -4.279844320860514387E-31, -1.000000000000000000, -1.606225440719262176E-16 ) ) ;
#159 = ORIENTED_EDGE ( 'NONE', *, *, #41, .F. ) ;
#160 = APPROVAL ( #246, 'UNSPECIFIED' ) ;
#161 = CC_DESIGN_APPROVAL ( #166, ( #240 ) ) ;
#162 = VERTEX_POINT ( 'NONE', #185 ) ;
#163 =( NAMED_UNIT ( * ) SI_UNIT ( $, .STERADIAN. ) SOLID_ANGLE_UNIT ( ) );
#164 = CC_DESIGN_PERSON_AND_ORGANIZATION_ASSIGNMENT ( #191, #211, ( #257 ) ) ;
#165 = FACE_OUTER_BOUND ( 'NONE', #155, .T. ) ;
#166 = APPROVAL ( #64, 'UNSPECIFIED' ) ;
#167 =( NAMED_UNIT ( * ) PLANE_ANGLE_UNIT ( ) SI_UNIT ( $, .RADIAN. ) );
#168 = DIRECTION ( 'NONE',  ( 1.510825004591027679E-30, 1.000000000000000000, 4.327174794786742389E-16 ) ) ;
#169 = DATE_TIME_ROLE ( 'creation_date' ) ;
#170 = ADVANCED_FACE ( 'NONE', ( #26, #85 ), #217, .T. ) ;
#171 = COORDINATED_UNIVERSAL_TIME_OFFSET ( 1, 0, .AHEAD. ) ;
#172 = CC_DESIGN_APPROVAL ( #219, ( #257 ) ) ;
#173 = APPROVAL_ROLE ( '' ) ;
#174 = DIRECTION ( 'NONE',  ( 3.491481338843133355E-15, -4.327174794786742882E-16, 1.000000000000000000 ) ) ;
#175 = APPLICATION_PROTOCOL_DEFINITION ( 'international standard', 'config_control_design', 1994, #128 ) ;
#176 = FACE_OUTER_BOUND ( 'NONE', #198, .T. ) ;
#177 = ADVANCED_FACE ( 'NONE', ( #176, #258 ), #108, .T. ) ;
#178 = CARTESIAN_POINT ( 'NONE',  ( 1.745740669421566678E-13, -6.123233995736766085E-15, 50.00000000000000000 ) ) ;
#179 = DIRECTION ( 'NONE',  ( 0.0000000000000000000, -1.000000000000000000, 0.0000000000000000000 ) ) ;
#180 = EDGE_LOOP ( 'NONE', ( #149 ) ) ;
#181 = FACE_OUTER_BOUND ( 'NONE', #260, .T. ) ;
#182 = CARTESIAN_POINT ( 'NONE',  ( 5.586370142149013368E-14, -6.938893903907228378E-15, 16.00000000000000000 ) ) ;
#183 = AXIS2_PLACEMENT_3D ( 'NONE', #8, #174, #179 ) ;
#184 = FACE_OUTER_BOUND ( 'NONE', #132, .T. ) ;
#185 = CARTESIAN_POINT ( 'NONE',  ( 1.745740669421566678E-13, 1.499999999999994005, 50.00000000000000000 ) ) ;
#186 = CIRCLE ( 'NONE', #244, 1.999999999999997335 ) ;
#187 = VERTEX_POINT ( 'NONE', #36 ) ;
#188 = AXIS2_PLACEMENT_3D ( 'NONE', #205, #206, #56 ) ;
#189 = CC_DESIGN_PERSON_AND_ORGANIZATION_ASSIGNMENT ( #59, #253, ( #6 ) ) ;
#190 = CALENDAR_DATE ( 2021, 13, 10 ) ;
#191 = PERSON_AND_ORGANIZATION ( #16, #97 ) ;
#192 = AXIS2_PLACEMENT_3D ( 'NONE', #107, #5, #84 ) ;
#193 = DIRECTION ( 'NONE',  ( 0.0000000000000000000, 1.000000000000000000, 0.0000000000000000000 ) ) ;
#194 = CIRCLE ( 'NONE', #17, 1.384074173710936995 ) ;
#195 = DIRECTION ( 'NONE',  ( -3.491481338843133355E-15, 1.224646799147353207E-16, -1.000000000000000000 ) ) ;
#196 = ADVANCED_FACE ( 'NONE', ( #138 ), #39, .T. ) ;
#197 = CARTESIAN_POINT ( 'NONE',  ( 3.840629472727446691E-14, -4.759892274265417170E-15, 11.00000000000000000 ) ) ;
#198 = EDGE_LOOP ( 'NONE', ( #80 ) ) ;
#199 = CIRCLE ( 'NONE', #10, 1.350000000000002975 ) ;
#200 = EDGE_LOOP ( 'NONE', ( #235 ) ) ;
#201 = VERTEX_POINT ( 'NONE', #14 ) ;
#202 = FACE_OUTER_BOUND ( 'NONE', #87, .T. ) ;
#203 = EDGE_CURVE ( 'NONE', #162, #162, #157, .T. ) ;
#204 = AXIS2_PLACEMENT_3D ( 'NONE', #197, #47, #218 ) ;
#205 = CARTESIAN_POINT ( 'NONE',  ( 0.0000000000000000000, 0.0000000000000000000, 0.0000000000000000000 ) ) ;
#206 = DIRECTION ( 'NONE',  ( -3.491481338843133355E-15, 1.224646799147353207E-16, -1.000000000000000000 ) ) ;
#207 = APPROVAL_PERSON_ORGANIZATION ( #255, #160, #23 ) ;
#208 = APPLICATION_PROTOCOL_DEFINITION ( 'international standard', 'config_control_design', 1994, #230 ) ;
#209 = EDGE_LOOP ( 'NONE', ( #126 ) ) ;
#210 = ORIENTED_EDGE ( 'NONE', *, *, #262, .T. ) ;
#211 = PERSON_AND_ORGANIZATION_ROLE ( 'creator' ) ;
#212 = CALENDAR_DATE ( 2021, 13, 10 ) ;
#213 = DIRECTION ( 'NONE',  ( 0.0000000000000000000, -1.000000000000000000, 0.0000000000000000000 ) ) ;
#214 = ADVANCED_FACE ( 'NONE', ( #184 ), #78, .F. ) ;
#215 = ORIENTED_EDGE ( 'NONE', *, *, #41, .T. ) ;
#216 = APPROVAL_DATE_TIME ( #100, #166 ) ;
#217 = CONICAL_SURFACE ( 'NONE', #183, 2.500000000000007105, 0.2617993877991502960 ) ;
#218 = DIRECTION ( 'NONE',  ( 0.0000000000000000000, -1.000000000000000000, 0.0000000000000000000 ) ) ;
#219 = APPROVAL ( #86, 'UNSPECIFIED' ) ;
#220 = PRODUCT_RELATED_PRODUCT_CATEGORY ( 'detail', '', ( #4 ) ) ;
#221 = FACE_OUTER_BOUND ( 'NONE', #129, .T. ) ;
#222 = CARTESIAN_POINT ( 'NONE',  ( 2.541590561669644070E-15, -8.914699647580431220E-17, 0.7279404685324121216 ) ) ;
#223 = DIRECTION ( 'NONE',  ( -3.491481338843133355E-15, 4.327174794786742882E-16, -1.000000000000000000 ) ) ;
#224 = ADVANCED_FACE ( 'NONE', ( #116, #90 ), #95, .T. ) ;
#225 = CARTESIAN_POINT ( 'NONE',  ( 0.0000000000000000000, 0.0000000000000000000, 0.0000000000000000000 ) ) ;
#226 = DIRECTION ( 'NONE',  ( -3.491481338843133355E-15, 4.327174794786742882E-16, -1.000000000000000000 ) ) ;
#227 = VERTEX_POINT ( 'NONE', #20 ) ;
#228 = PERSON_AND_ORGANIZATION ( #16, #97 ) ;
#229 = AXIS2_PLACEMENT_3D ( 'NONE', #225, #223, #261 ) ;
#230 = APPLICATION_CONTEXT ( 'configuration controlled 3d designs of mechanical parts and assemblies' ) ;
#231 = CLOSED_SHELL ( 'NONE', ( #224, #49, #147, #242, #170, #250, #214 ) ) ;
#232 = APPROVAL_ROLE ( '' ) ;
#233 = PERSON_AND_ORGANIZATION_ROLE ( 'design_owner' ) ;
#234 = DIRECTION ( 'NONE',  ( -3.491481338843133355E-15, 1.224646799147353207E-16, -1.000000000000000000 ) ) ;
#235 = ORIENTED_EDGE ( 'NONE', *, *, #203, .F. ) ;
#236 = AXIS2_PLACEMENT_3D ( 'NONE', #75, #94, #168 ) ;
#237 = CARTESIAN_POINT ( 'NONE',  ( 3.840629472727446691E-14, 1.499759782661852408E-32, 11.00000000000000000 ) ) ;
#238 = FACE_OUTER_BOUND ( 'NONE', #61, .T. ) ;
#239 = PLANE ( 'NONE',  #76 ) ;
#240 = SECURITY_CLASSIFICATION ( '', '', #124 ) ;
#241 = VERTEX_POINT ( 'NONE', #140 ) ;
#242 = ADVANCED_FACE ( 'NONE', ( #181, #1 ), #245, .T. ) ;
#243 = VERTEX_POINT ( 'NONE', #144 ) ;
#244 = AXIS2_PLACEMENT_3D ( 'NONE', #109, #32, #213 ) ;
#245 = CYLINDRICAL_SURFACE ( 'NONE', #229, 1.350000000000002975 ) ;
#246 = APPROVAL_STATUS ( 'not_yet_approved' ) ;
#247 = PERSON_AND_ORGANIZATION ( #16, #97 ) ;
#248 = ORIENTED_EDGE ( 'NONE', *, *, #74, .T. ) ;
#249 = CIRCLE ( 'NONE', #133, 1.350000000000005418 ) ;
#250 = ADVANCED_FACE ( 'NONE', ( #165, #202 ), #148, .F. ) ;
#251 = PRODUCT_DEFINITION_SHAPE ( 'NONE', 'NONE',  #257 ) ;
#252 = MECHANICAL_CONTEXT ( 'NONE', #230, 'mechanical' ) ;
#253 = PERSON_AND_ORGANIZATION_ROLE ( 'design_supplier' ) ;
#254 = ORIENTED_EDGE ( 'NONE', *, *, #66, .F. ) ;
#255 = PERSON_AND_ORGANIZATION ( #16, #97 ) ;
#256 = EDGE_LOOP ( 'NONE', ( #134 ) ) ;
#257 = PRODUCT_DEFINITION ( 'UNKNOWN', '', #6, #139 ) ;
#258 = FACE_OUTER_BOUND ( 'NONE', #112, .T. ) ;
#259 = DIRECTION ( 'NONE',  ( 0.0000000000000000000, -1.000000000000000000, 0.0000000000000000000 ) ) ;
#260 = EDGE_LOOP ( 'NONE', ( #210 ) ) ;
#261 = DIRECTION ( 'NONE',  ( 1.510825004591027679E-30, 1.000000000000000000, 4.327174794786742389E-16 ) ) ;
#262 = EDGE_CURVE ( 'NONE', #241, #241, #249, .T. ) ;
#263 = CARTESIAN_POINT ( 'NONE',  ( 1.715573629127017853E-15, -1.350000000000002975, 0.4913598162593804108 ) ) ;
ENDSEC;
END-ISO-10303-21;
