ISO-10303-21;
HEADER;
FILE_DESCRIPTION (( 'STEP AP203' ),
    '1' );
FILE_NAME ('43306.step',
    '2021-10-13T11:35:49',
    ( '' ),
    ( '' ),
    'SwSTEP 2.0',
    'SolidWorks 2019',
    '' );
FILE_SCHEMA (( 'CONFIG_CONTROL_DESIGN' ));
ENDSEC;

DATA;
#1 = AXIS2_PLACEMENT_3D ( 'NONE', #31, #180, #256 ) ;
#2 = DATE_AND_TIME ( #193, #178 ) ;
#3 = ORIENTED_EDGE ( 'NONE', *, *, #99, .T. ) ;
#4 = CC_DESIGN_DATE_AND_TIME_ASSIGNMENT ( #143, #77, ( #132 ) ) ;
#5 = EDGE_CURVE ( 'NONE', #114, #114, #131, .T. ) ;
#6 = FACE_OUTER_BOUND ( 'NONE', #69, .T. ) ;
#7 = ORIENTED_EDGE ( 'NONE', *, *, #151, .F. ) ;
#8 = CC_DESIGN_APPROVAL ( #159, ( #89 ) ) ;
#9 = CARTESIAN_POINT ( 'NONE',  ( 5.586370142149013368E-14, -6.923479671658788611E-15, 16.00000000000000000 ) ) ;
#10 = DIRECTION ( 'NONE',  ( 1.510825004591028030E-30, 1.000000000000000000, 4.327174794786742882E-16 ) ) ;
#11 = DIRECTION ( 'NONE',  ( 0.0000000000000000000, -1.000000000000000000, 0.0000000000000000000 ) ) ;
#12 = CIRCLE ( 'NONE', #109, 2.000000000000000000 ) ;
#13 = VERTEX_POINT ( 'NONE', #94 ) ;
#14 = CARTESIAN_POINT ( 'NONE',  ( 3.840629472727446691E-14, -4.759892274265417170E-15, 11.00000000000000000 ) ) ;
#15 = CARTESIAN_POINT ( 'NONE',  ( 1.652033865085277086E-15, -5.794554770927308643E-17, 0.4731613045460702494 ) ) ;
#16 = APPLICATION_CONTEXT ( 'configuration controlled 3d designs of mechanical parts and assemblies' ) ;
#17 = CIRCLE ( 'NONE', #187, 1.300000000000002709 ) ;
#18 = CARTESIAN_POINT ( 'NONE',  ( 3.840629472727446691E-14, -4.759892274265417170E-15, 11.00000000000000000 ) ) ;
#19 = PERSON_AND_ORGANIZATION ( #92, #122 ) ;
#20 = VERTEX_POINT ( 'NONE', #23 ) ;
#21 = AXIS2_PLACEMENT_3D ( 'NONE', #171, #224, #240 ) ;
#22 = PERSON_AND_ORGANIZATION_ROLE ( 'design_owner' ) ;
#23 = CARTESIAN_POINT ( 'NONE',  ( 3.840629472727446691E-14, -1.300000000000007594, 11.00000000000000000 ) ) ;
#24 = FACE_OUTER_BOUND ( 'NONE', #215, .T. ) ;
#25 = CC_DESIGN_PERSON_AND_ORGANIZATION_ASSIGNMENT ( #100, #246, ( #132 ) ) ;
#26 = CARTESIAN_POINT ( 'NONE',  ( 1.728283262727351074E-13, -6.062001655779398511E-15, 49.50000000000000000 ) ) ;
#27 = EDGE_LOOP ( 'NONE', ( #249 ) ) ;
#28 = FACE_BOUND ( 'NONE', #229, .T. ) ;
#29 = CARTESIAN_POINT ( 'NONE',  ( 5.676736328760279737E-14, -7.035475196496629834E-15, 16.25881904510252340 ) ) ;
#30 = UNCERTAINTY_MEASURE_WITH_UNIT (LENGTH_MEASURE( 1.000000000000000082E-05 ), #185, 'distance_accuracy_value', 'NONE');
#31 = CARTESIAN_POINT ( 'NONE',  ( 0.0000000000000000000, 0.0000000000000000000, 0.0000000000000000000 ) ) ;
#32 = DIRECTION ( 'NONE',  ( 0.0000000000000000000, -1.000000000000000000, 0.0000000000000000000 ) ) ;
#33 = CC_DESIGN_PERSON_AND_ORGANIZATION_ASSIGNMENT ( #244, #124, ( #89 ) ) ;
#34 = CARTESIAN_POINT ( 'NONE',  ( 3.840629472727446691E-14, 1.499759782661852408E-32, 11.00000000000000000 ) ) ;
#35 = FACE_OUTER_BOUND ( 'NONE', #70, .T. ) ;
#36 = CARTESIAN_POINT ( 'NONE',  ( 5.676736328760279737E-14, 1.334074173710930289, 16.25881904510252340 ) ) ;
#37 = PRODUCT_RELATED_PRODUCT_CATEGORY ( 'detail', '', ( #120 ) ) ;
#38 = DATE_AND_TIME ( #104, #140 ) ;
#39 = PERSON_AND_ORGANIZATION_ROLE ( 'creator' ) ;
#40 = APPLICATION_PROTOCOL_DEFINITION ( 'international standard', 'config_control_design', 1994, #16 ) ;
#41 = PRODUCT_DEFINITION_FORMATION_WITH_SPECIFIED_SOURCE ( 'ANY', '', #120, .NOT_KNOWN. ) ;
#42 = LOCAL_TIME ( 13, 35, 49.00000000000000000, #123 ) ;
#43 = CC_DESIGN_PERSON_AND_ORGANIZATION_ASSIGNMENT ( #76, #121, ( #41 ) ) ;
#44 = EDGE_LOOP ( 'NONE', ( #228 ) ) ;
#45 = CC_DESIGN_DATE_AND_TIME_ASSIGNMENT ( #142, #262, ( #89 ) ) ;
#46 = ADVANCED_BREP_SHAPE_REPRESENTATION ( '43306', ( #166, #245, #21 ), #237 ) ;
#47 = DIRECTION ( 'NONE',  ( 4.275831445896958607E-31, 1.000000000000000000, 1.224646799147353207E-16 ) ) ;
#48 = DIRECTION ( 'NONE',  ( 0.0000000000000000000, 1.000000000000000000, 0.0000000000000000000 ) ) ;
#49 = EDGE_LOOP ( 'NONE', ( #226 ) ) ;
#50 = ORIENTED_EDGE ( 'NONE', *, *, #242, .F. ) ;
#51 = CLOSED_SHELL ( 'NONE', ( #127, #63, #80, #53, #232, #110, #112 ) ) ;
#52 = CARTESIAN_POINT ( 'NONE',  ( 1.728283262727351074E-13, 1.999999999999994005, 49.50000000000000000 ) ) ;
#53 = ADVANCED_FACE ( 'NONE', ( #24, #196 ), #66, .T. ) ;
#54 = CARTESIAN_POINT ( 'NONE',  ( 3.840629472727446691E-14, -1.300000000000007594, 11.00000000000000000 ) ) ;
#55 = APPROVAL_PERSON_ORGANIZATION ( #19, #159, #145 ) ;
#56 = FACE_OUTER_BOUND ( 'NONE', #173, .T. ) ;
#57 = DIRECTION ( 'NONE',  ( -3.491481338843133355E-15, 1.224646799147353207E-16, -1.000000000000000000 ) ) ;
#58 = EDGE_LOOP ( 'NONE', ( #192 ) ) ;
#59 = COORDINATED_UNIVERSAL_TIME_OFFSET ( 1, 0, .AHEAD. ) ;
#60 = TOROIDAL_SURFACE ( 'NONE', #168, 2.300000000000005151, 1.000000000000000000 ) ;
#61 = CALENDAR_DATE ( 2021, 13, 10 ) ;
#62 = CONICAL_SURFACE ( 'NONE', #204, 1.500000000000000000, 0.7853981633974479459 ) ;
#63 = ADVANCED_FACE ( 'NONE', ( #212, #28 ), #62, .T. ) ;
#64 = APPROVAL_DATE_TIME ( #2, #260 ) ;
#65 = ORIENTED_EDGE ( 'NONE', *, *, #72, .F. ) ;
#66 = CYLINDRICAL_SURFACE ( 'NONE', #177, 1.300000000000002709 ) ;
#67 = AXIS2_PLACEMENT_3D ( 'NONE', #106, #191, #47 ) ;
#68 = CIRCLE ( 'NONE', #156, 1.300000000000005151 ) ;
#69 = EDGE_LOOP ( 'NONE', ( #209 ) ) ;
#70 = EDGE_LOOP ( 'NONE', ( #111 ) ) ;
#71 = CARTESIAN_POINT ( 'NONE',  ( 1.745740669421566678E-13, 1.499999999999994005, 50.00000000000000000 ) ) ;
#72 = EDGE_CURVE ( 'NONE', #155, #155, #12, .T. ) ;
#73 = DIRECTION ( 'NONE',  ( -4.275831445896958607E-31, -1.000000000000000000, -1.224646799147353207E-16 ) ) ;
#74 = PLANE ( 'NONE',  #144 ) ;
#75 = DIRECTION ( 'NONE',  ( 4.275831445896959482E-31, 1.000000000000000000, 1.224646799147353454E-16 ) ) ;
#76 = PERSON_AND_ORGANIZATION ( #92, #122 ) ;
#77 = DATE_TIME_ROLE ( 'classification_date' ) ;
#78 = CIRCLE ( 'NONE', #115, 1.300000000000002709 ) ;
#79 = PERSON_AND_ORGANIZATION ( #92, #122 ) ;
#80 = ADVANCED_FACE ( 'NONE', ( #105 ), #225, .F. ) ;
#81 = DATE_AND_TIME ( #102, #207 ) ;
#82 = APPROVAL_DATE_TIME ( #81, #159 ) ;
#83 = CIRCLE ( 'NONE', #214, 1.300000000000002709 ) ;
#84 = DIRECTION ( 'NONE',  ( 0.0000000000000000000, 1.000000000000000000, 0.0000000000000000000 ) ) ;
#85 = DIRECTION ( 'NONE',  ( -3.491481338843133355E-15, 4.327174794786742882E-16, -1.000000000000000000 ) ) ;
#86 = CIRCLE ( 'NONE', #93, 1.999999999999997335 ) ;
#87 = DIRECTION ( 'NONE',  ( -3.491481338843133355E-15, 1.224646799147353207E-16, -1.000000000000000000 ) ) ;
#88 = ORIENTED_EDGE ( 'NONE', *, *, #189, .T. ) ;
#89 = PRODUCT_DEFINITION ( 'UNKNOWN', '', #41, #101 ) ;
#90 = EDGE_CURVE ( 'NONE', #117, #117, #68, .T. ) ;
#91 = DIRECTION ( 'NONE',  ( 3.491481338843133355E-15, -1.224646799147353207E-16, 1.000000000000000000 ) ) ;
#92 = PERSON ( 'UNSPECIFIED', 'UNSPECIFIED', 'UNSPECIFIED', ('UNSPECIFIED'), ('UNSPECIFIED'), ('UNSPECIFIED') ) ;
#93 = AXIS2_PLACEMENT_3D ( 'NONE', #164, #217, #216 ) ;
#94 = CARTESIAN_POINT ( 'NONE',  ( 6.544463368519731417E-14, -2.000000000000005773, 18.74408806288557017 ) ) ;
#95 = DIRECTION ( 'NONE',  ( 3.491481338843133355E-15, -1.224646799147353207E-16, 1.000000000000000000 ) ) ;
#96 = DIRECTION ( 'NONE',  ( -4.444453717816689230E-31, -1.000000000000000000, -1.251002506714041075E-16 ) ) ;
#97 = CIRCLE ( 'NONE', #257, 1.500000000000000000 ) ;
#98 = CARTESIAN_POINT ( 'NONE',  ( 5.586370142149013368E-14, 1.299999999999998268, 16.00000000000000000 ) ) ;
#99 = EDGE_CURVE ( 'NONE', #158, #158, #97, .T. ) ;
#100 = PERSON_AND_ORGANIZATION ( #92, #122 ) ;
#101 = DESIGN_CONTEXT ( 'detailed design', #16, 'design' ) ;
#102 = CALENDAR_DATE ( 2021, 13, 10 ) ;
#103 = APPROVAL_STATUS ( 'not_yet_approved' ) ;
#104 = CALENDAR_DATE ( 2021, 13, 10 ) ;
#105 = FACE_OUTER_BOUND ( 'NONE', #58, .T. ) ;
#106 = CARTESIAN_POINT ( 'NONE',  ( 1.745740669421566678E-13, 1.124819836996384174E-32, 50.00000000000000000 ) ) ;
#107 = ORIENTED_EDGE ( 'NONE', *, *, #5, .T. ) ;
#108 = CARTESIAN_POINT ( 'NONE',  ( 1.745740669421566678E-13, -6.123233995736766085E-15, 50.00000000000000000 ) ) ;
#109 = AXIS2_PLACEMENT_3D ( 'NONE', #26, #125, #48 ) ;
#110 = ADVANCED_FACE ( 'NONE', ( #6, #252 ), #60, .F. ) ;
#111 = ORIENTED_EDGE ( 'NONE', *, *, #189, .F. ) ;
#112 = ADVANCED_FACE ( 'NONE', ( #161 ), #136, .F. ) ;
#113 = CARTESIAN_POINT ( 'NONE',  ( 1.652033865085276495E-15, -1.300000000000002709, 0.4731613045460700828 ) ) ;
#114 = VERTEX_POINT ( 'NONE', #36 ) ;
#115 = AXIS2_PLACEMENT_3D ( 'NONE', #18, #57, #32 ) ;
#116 = DIRECTION ( 'NONE',  ( 1.510825004591027679E-30, 1.000000000000000000, 4.327174794786742882E-16 ) ) ;
#117 = VERTEX_POINT ( 'NONE', #98 ) ;
#118 = AXIS2_PLACEMENT_3D ( 'NONE', #157, #135, #219 ) ;
#119 = CC_DESIGN_APPROVAL ( #260, ( #132 ) ) ;
#120 = PRODUCT ( '43306', '43306', '', ( #141 ) ) ;
#121 = PERSON_AND_ORGANIZATION_ROLE ( 'design_supplier' ) ;
#122 = ORGANIZATION ( 'UNSPECIFIED', 'UNSPECIFIED', '' ) ;
#123 = COORDINATED_UNIVERSAL_TIME_OFFSET ( 1, 0, .AHEAD. ) ;
#124 = PERSON_AND_ORGANIZATION_ROLE ( 'creator' ) ;
#125 = DIRECTION ( 'NONE',  ( -3.491481338843133355E-15, 1.224646799147353207E-16, -1.000000000000000000 ) ) ;
#126 = DIRECTION ( 'NONE',  ( -3.491481338843133355E-15, 4.327174794786742882E-16, -1.000000000000000000 ) ) ;
#127 = ADVANCED_FACE ( 'NONE', ( #134, #176 ), #218, .T. ) ;
#128 = DIRECTION ( 'NONE',  ( 0.0000000000000000000, 1.000000000000000000, 0.0000000000000000000 ) ) ;
#129 = DIRECTION ( 'NONE',  ( -3.491481338843133355E-15, 4.327174794786742882E-16, -1.000000000000000000 ) ) ;
#130 = EDGE_LOOP ( 'NONE', ( #251 ) ) ;
#131 = CIRCLE ( 'NONE', #227, 1.334074173710937394 ) ;
#132 = SECURITY_CLASSIFICATION ( '', '', #221 ) ;
#133 = FACE_OUTER_BOUND ( 'NONE', #230, .T. ) ;
#134 = FACE_OUTER_BOUND ( 'NONE', #211, .T. ) ;
#135 = DIRECTION ( 'NONE',  ( 3.491481338843133355E-15, -1.224646799147353207E-16, 1.000000000000000000 ) ) ;
#136 = PLANE ( 'NONE',  #186 ) ;
#137 = CC_DESIGN_PERSON_AND_ORGANIZATION_ASSIGNMENT ( #169, #22, ( #120 ) ) ;
#138 = CALENDAR_DATE ( 2021, 13, 10 ) ;
#139 = CLOSED_SHELL ( 'NONE', ( #231, #190, #165 ) ) ;
#140 = LOCAL_TIME ( 13, 35, 49.00000000000000000, #223 ) ;
#141 = MECHANICAL_CONTEXT ( 'NONE', #160, 'mechanical' ) ;
#142 = DATE_AND_TIME ( #138, #162 ) ;
#143 = DATE_AND_TIME ( #61, #42 ) ;
#144 = AXIS2_PLACEMENT_3D ( 'NONE', #34, #95, #201 ) ;
#145 = APPROVAL_ROLE ( '' ) ;
#146 = COORDINATED_UNIVERSAL_TIME_OFFSET ( 1, 0, .AHEAD. ) ;
#147 = EDGE_LOOP ( 'NONE', ( #50 ) ) ;
#148 = APPROVAL_ROLE ( '' ) ;
#149 = EDGE_CURVE ( 'NONE', #234, #234, #17, .T. ) ;
#150 = ORIENTED_EDGE ( 'NONE', *, *, #5, .F. ) ;
#151 = EDGE_CURVE ( 'NONE', #198, #198, #83, .T. ) ;
#152 = ORIENTED_EDGE ( 'NONE', *, *, #90, .T. ) ;
#153 = EDGE_LOOP ( 'NONE', ( #65 ) ) ;
#154 = EDGE_LOOP ( 'NONE', ( #150 ) ) ;
#155 = VERTEX_POINT ( 'NONE', #52 ) ;
#156 = AXIS2_PLACEMENT_3D ( 'NONE', #9, #126, #128 ) ;
#157 = CARTESIAN_POINT ( 'NONE',  ( 2.541590561669644070E-15, -8.914699647580431220E-17, 0.7279404685324121216 ) ) ;
#158 = VERTEX_POINT ( 'NONE', #71 ) ;
#159 = APPROVAL ( #103, 'UNSPECIFIED' ) ;
#160 = APPLICATION_CONTEXT ( 'configuration controlled 3d designs of mechanical parts and assemblies' ) ;
#161 = FACE_OUTER_BOUND ( 'NONE', #27, .T. ) ;
#162 = LOCAL_TIME ( 13, 35, 49.00000000000000000, #184 ) ;
#163 = CC_DESIGN_APPROVAL ( #222, ( #41 ) ) ;
#164 = CARTESIAN_POINT ( 'NONE',  ( 6.544463368519731417E-14, -8.110894541698151993E-15, 18.74408806288557017 ) ) ;
#165 = ADVANCED_FACE ( 'NONE', ( #56 ), #74, .T. ) ;
#166 = MANIFOLD_SOLID_BREP ( 'Corps-Déplacer/Copier1[1]', #51 ) ;
#167 = PERSON_AND_ORGANIZATION ( #92, #122 ) ;
#168 = AXIS2_PLACEMENT_3D ( 'NONE', #235, #202, #116 ) ;
#169 = PERSON_AND_ORGANIZATION ( #92, #122 ) ;
#170 = PRODUCT_DEFINITION_SHAPE ( 'NONE', 'NONE',  #89 ) ;
#171 = CARTESIAN_POINT ( 'NONE',  ( 0.0000000000000000000, 0.0000000000000000000, 0.0000000000000000000 ) ) ;
#172 = ORIENTED_EDGE ( 'NONE', *, *, #149, .F. ) ;
#173 = EDGE_LOOP ( 'NONE', ( #7 ) ) ;
#174 = DIRECTION ( 'NONE',  ( 0.0000000000000000000, 1.000000000000000000, 0.0000000000000000000 ) ) ;
#175 = DIRECTION ( 'NONE',  ( 0.0000000000000000000, 1.000000000000000000, 0.0000000000000000000 ) ) ;
#176 = FACE_OUTER_BOUND ( 'NONE', #44, .T. ) ;
#177 = AXIS2_PLACEMENT_3D ( 'NONE', #197, #85, #10 ) ;
#178 = LOCAL_TIME ( 13, 35, 49.00000000000000000, #146 ) ;
#179 = CYLINDRICAL_SURFACE ( 'NONE', #1, 1.300000000000002709 ) ;
#180 = DIRECTION ( 'NONE',  ( -3.491481338843133355E-15, 4.327174794786742882E-16, -1.000000000000000000 ) ) ;
#181 = FACE_OUTER_BOUND ( 'NONE', #130, .T. ) ;
#182 = AXIS2_PLACEMENT_3D ( 'NONE', #238, #203, #75 ) ;
#183 = DIRECTION ( 'NONE',  ( -3.491481338843133355E-15, 1.224646799147353207E-16, -1.000000000000000000 ) ) ;
#184 = COORDINATED_UNIVERSAL_TIME_OFFSET ( 1, 0, .AHEAD. ) ;
#185 =( LENGTH_UNIT ( ) NAMED_UNIT ( * ) SI_UNIT ( .MILLI., .METRE. ) );
#186 = AXIS2_PLACEMENT_3D ( 'NONE', #236, #91, #73 ) ;
#187 = AXIS2_PLACEMENT_3D ( 'NONE', #15, #220, #96 ) ;
#188 = PERSON_AND_ORGANIZATION ( #92, #122 ) ;
#189 = EDGE_CURVE ( 'NONE', #13, #13, #86, .T. ) ;
#190 = ADVANCED_FACE ( 'NONE', ( #181, #133 ), #179, .T. ) ;
#191 = DIRECTION ( 'NONE',  ( -3.491481338843133355E-15, 1.224646799147353207E-16, -1.000000000000000000 ) ) ;
#192 = ORIENTED_EDGE ( 'NONE', *, *, #99, .F. ) ;
#193 = CALENDAR_DATE ( 2021, 13, 10 ) ;
#194 = CARTESIAN_POINT ( 'NONE',  ( 1.745740669421566678E-13, -6.123233995736766085E-15, 50.00000000000000000 ) ) ;
#195 = APPROVAL_PERSON_ORGANIZATION ( #188, #222, #261 ) ;
#196 = FACE_OUTER_BOUND ( 'NONE', #147, .T. ) ;
#197 = CARTESIAN_POINT ( 'NONE',  ( 0.0000000000000000000, 0.0000000000000000000, 0.0000000000000000000 ) ) ;
#198 = VERTEX_POINT ( 'NONE', #54 ) ;
#199 = FACE_BOUND ( 'NONE', #154, .T. ) ;
#200 = AXIS2_PLACEMENT_3D ( 'NONE', #258, #239, #255 ) ;
#201 = DIRECTION ( 'NONE',  ( -4.275831445896958607E-31, -1.000000000000000000, -1.224646799147353207E-16 ) ) ;
#202 = DIRECTION ( 'NONE',  ( -3.491481338843133355E-15, 4.327174794786742882E-16, -1.000000000000000000 ) ) ;
#203 = DIRECTION ( 'NONE',  ( -3.491481338843133355E-15, 1.224646799147353207E-16, -1.000000000000000000 ) ) ;
#204 = AXIS2_PLACEMENT_3D ( 'NONE', #108, #248, #175 ) ;
#205 =( NAMED_UNIT ( * ) SI_UNIT ( $, .STERADIAN. ) SOLID_ANGLE_UNIT ( ) );
#206 = APPLICATION_PROTOCOL_DEFINITION ( 'international standard', 'config_control_design', 1994, #160 ) ;
#207 = LOCAL_TIME ( 13, 35, 49.00000000000000000, #59 ) ;
#208 =( NAMED_UNIT ( * ) PLANE_ANGLE_UNIT ( ) SI_UNIT ( $, .RADIAN. ) );
#209 = ORIENTED_EDGE ( 'NONE', *, *, #90, .F. ) ;
#210 = CC_DESIGN_SECURITY_CLASSIFICATION ( #132, ( #41 ) ) ;
#211 = EDGE_LOOP ( 'NONE', ( #88 ) ) ;
#212 = FACE_OUTER_BOUND ( 'NONE', #153, .T. ) ;
#213 = SHAPE_DEFINITION_REPRESENTATION ( #170, #46 ) ;
#214 = AXIS2_PLACEMENT_3D ( 'NONE', #14, #183, #11 ) ;
#215 = EDGE_LOOP ( 'NONE', ( #152 ) ) ;
#216 = DIRECTION ( 'NONE',  ( 0.0000000000000000000, -1.000000000000000000, 0.0000000000000000000 ) ) ;
#217 = DIRECTION ( 'NONE',  ( 3.491481338843133355E-15, -4.327174794786742882E-16, 1.000000000000000000 ) ) ;
#218 = CYLINDRICAL_SURFACE ( 'NONE', #182, 1.999999999999997335 ) ;
#219 = DIRECTION ( 'NONE',  ( -3.851859888774483092E-31, -1.000000000000000000, -1.084202172485507639E-16 ) ) ;
#220 = DIRECTION ( 'NONE',  ( -3.491481338843133355E-15, 1.224646799147353207E-16, -1.000000000000000000 ) ) ;
#221 = SECURITY_CLASSIFICATION_LEVEL ( 'unclassified' ) ;
#222 = APPROVAL ( #263, 'UNSPECIFIED' ) ;
#223 = COORDINATED_UNIVERSAL_TIME_OFFSET ( 1, 0, .AHEAD. ) ;
#224 = DIRECTION ( 'NONE',  ( 0.0000000000000000000, 0.0000000000000000000, 1.000000000000000000 ) ) ;
#225 = PLANE ( 'NONE',  #67 ) ;
#226 = ORIENTED_EDGE ( 'NONE', *, *, #149, .T. ) ;
#227 = AXIS2_PLACEMENT_3D ( 'NONE', #29, #129, #84 ) ;
#228 = ORIENTED_EDGE ( 'NONE', *, *, #72, .T. ) ;
#229 = EDGE_LOOP ( 'NONE', ( #3 ) ) ;
#230 = EDGE_LOOP ( 'NONE', ( #172 ) ) ;
#231 = ADVANCED_FACE ( 'NONE', ( #254 ), #247, .T. ) ;
#232 = ADVANCED_FACE ( 'NONE', ( #199, #35 ), #243, .T. ) ;
#233 = APPROVAL_PERSON_ORGANIZATION ( #167, #260, #148 ) ;
#234 = VERTEX_POINT ( 'NONE', #113 ) ;
#235 = CARTESIAN_POINT ( 'NONE',  ( 5.586370142149013368E-14, -6.938893903907228378E-15, 16.00000000000000000 ) ) ;
#236 = CARTESIAN_POINT ( 'NONE',  ( 3.840629472727446691E-14, 1.499759782661852408E-32, 11.00000000000000000 ) ) ;
#237 =( GEOMETRIC_REPRESENTATION_CONTEXT ( 3 ) GLOBAL_UNCERTAINTY_ASSIGNED_CONTEXT ( ( #30 ) ) GLOBAL_UNIT_ASSIGNED_CONTEXT ( ( #185, #208, #205 ) ) REPRESENTATION_CONTEXT ( 'NONE', 'WORKASPACE' ) );
#238 = CARTESIAN_POINT ( 'NONE',  ( 0.0000000000000000000, 0.0000000000000000000, 0.0000000000000000000 ) ) ;
#239 = DIRECTION ( 'NONE',  ( 3.491481338843133355E-15, -4.327174794786742882E-16, 1.000000000000000000 ) ) ;
#240 = DIRECTION ( 'NONE',  ( 1.000000000000000000, 0.0000000000000000000, 0.0000000000000000000 ) ) ;
#241 = APPROVAL_STATUS ( 'not_yet_approved' ) ;
#242 = EDGE_CURVE ( 'NONE', #20, #20, #78, .T. ) ;
#243 = CONICAL_SURFACE ( 'NONE', #200, 2.500000000000007105, 0.2617993877991504625 ) ;
#244 = PERSON_AND_ORGANIZATION ( #92, #122 ) ;
#245 = MANIFOLD_SOLID_BREP ( 'Corps-Déplacer/Copier1[2]', #139 ) ;
#246 = PERSON_AND_ORGANIZATION_ROLE ( 'classification_officer' ) ;
#247 = CONICAL_SURFACE ( 'NONE', #118, 1.999999999999994005, 1.221730476396026388 ) ;
#248 = DIRECTION ( 'NONE',  ( -3.491481338843133355E-15, 1.224646799147353207E-16, -1.000000000000000000 ) ) ;
#249 = ORIENTED_EDGE ( 'NONE', *, *, #242, .T. ) ;
#250 = CC_DESIGN_PERSON_AND_ORGANIZATION_ASSIGNMENT ( #79, #39, ( #41 ) ) ;
#251 = ORIENTED_EDGE ( 'NONE', *, *, #151, .T. ) ;
#252 = FACE_OUTER_BOUND ( 'NONE', #253, .T. ) ;
#253 = EDGE_LOOP ( 'NONE', ( #107 ) ) ;
#254 = FACE_OUTER_BOUND ( 'NONE', #49, .T. ) ;
#255 = DIRECTION ( 'NONE',  ( 0.0000000000000000000, -1.000000000000000000, 0.0000000000000000000 ) ) ;
#256 = DIRECTION ( 'NONE',  ( 1.510825004591028030E-30, 1.000000000000000000, 4.327174794786742882E-16 ) ) ;
#257 = AXIS2_PLACEMENT_3D ( 'NONE', #194, #87, #174 ) ;
#258 = CARTESIAN_POINT ( 'NONE',  ( 7.195982656031798971E-14, -8.918356351066941370E-15, 20.61011346667003963 ) ) ;
#259 = APPROVAL_DATE_TIME ( #38, #222 ) ;
#260 = APPROVAL ( #241, 'UNSPECIFIED' ) ;
#261 = APPROVAL_ROLE ( '' ) ;
#262 = DATE_TIME_ROLE ( 'creation_date' ) ;
#263 = APPROVAL_STATUS ( 'not_yet_approved' ) ;
ENDSEC;
END-ISO-10303-21;
