ISO-10303-21;
HEADER;
FILE_DESCRIPTION (( 'STEP AP203' ),
    '1' );
FILE_NAME ('43304.step',
    '2021-10-13T11:35:48',
    ( '' ),
    ( '' ),
    'SwSTEP 2.0',
    'SolidWorks 2019',
    '' );
FILE_SCHEMA (( 'CONFIG_CONTROL_DESIGN' ));
ENDSEC;

DATA;
#1 = DIRECTION ( 'NONE',  ( 0.0000000000000000000, -1.000000000000000000, 0.0000000000000000000 ) ) ;
#2 = CC_DESIGN_PERSON_AND_ORGANIZATION_ASSIGNMENT ( #239, #33, ( #63 ) ) ;
#3 = DIRECTION ( 'NONE',  ( -3.491481338843133355E-15, 4.327174794786742882E-16, -1.000000000000000000 ) ) ;
#4 = EDGE_LOOP ( 'NONE', ( #26 ) ) ;
#5 = AXIS2_PLACEMENT_3D ( 'NONE', #108, #42, #184 ) ;
#6 = FACE_BOUND ( 'NONE', #222, .T. ) ;
#7 = EDGE_LOOP ( 'NONE', ( #189 ) ) ;
#8 = DIRECTION ( 'NONE',  ( 3.491481338843133355E-15, -1.224646799147353207E-16, 1.000000000000000000 ) ) ;
#9 = FACE_OUTER_BOUND ( 'NONE', #20, .T. ) ;
#10 = CARTESIAN_POINT ( 'NONE',  ( 1.745740669421566678E-13, 1.099999999999988987, 50.00000000000000000 ) ) ;
#11 = VERTEX_POINT ( 'NONE', #56 ) ;
#12 = CC_DESIGN_DATE_AND_TIME_ASSIGNMENT ( #176, #218, ( #129 ) ) ;
#13 = APPROVAL_DATE_TIME ( #38, #36 ) ;
#14 = LOCAL_TIME ( 13, 35, 48.00000000000000000, #98 ) ;
#15 = APPROVAL_STATUS ( 'not_yet_approved' ) ;
#16 = ADVANCED_BREP_SHAPE_REPRESENTATION ( '43304', ( #237, #67, #39 ), #220 ) ;
#17 = CIRCLE ( 'NONE', #23, 1.099999999999994982 ) ;
#18 = APPROVAL_DATE_TIME ( #219, #177 ) ;
#19 = ADVANCED_FACE ( 'NONE', ( #113, #167 ), #61, .T. ) ;
#20 = EDGE_LOOP ( 'NONE', ( #107 ) ) ;
#21 = APPLICATION_CONTEXT ( 'configuration controlled 3d designs of mechanical parts and assemblies' ) ;
#22 = FACE_OUTER_BOUND ( 'NONE', #149, .T. ) ;
#23 = AXIS2_PLACEMENT_3D ( 'NONE', #25, #145, #83 ) ;
#24 = ADVANCED_FACE ( 'NONE', ( #9 ), #199, .T. ) ;
#25 = CARTESIAN_POINT ( 'NONE',  ( 1.745740669421566678E-13, -6.123233995736766085E-15, 50.00000000000000000 ) ) ;
#26 = ORIENTED_EDGE ( 'NONE', *, *, #104, .T. ) ;
#27 = DIRECTION ( 'NONE',  ( 1.510825004591028030E-30, 1.000000000000000000, 4.327174794786742389E-16 ) ) ;
#28 = ORIENTED_EDGE ( 'NONE', *, *, #84, .F. ) ;
#29 = VERTEX_POINT ( 'NONE', #187 ) ;
#30 = LOCAL_TIME ( 13, 35, 48.00000000000000000, #255 ) ;
#31 = PLANE ( 'NONE',  #44 ) ;
#32 = DIRECTION ( 'NONE',  ( -3.491481338843133355E-15, 1.224646799147353207E-16, -1.000000000000000000 ) ) ;
#33 = PERSON_AND_ORGANIZATION_ROLE ( 'design_supplier' ) ;
#34 = FACE_OUTER_BOUND ( 'NONE', #125, .T. ) ;
#35 = COORDINATED_UNIVERSAL_TIME_OFFSET ( 1, 0, .AHEAD. ) ;
#36 = APPROVAL ( #152, 'UNSPECIFIED' ) ;
#37 = CALENDAR_DATE ( 2021, 13, 10 ) ;
#38 = DATE_AND_TIME ( #215, #75 ) ;
#39 = AXIS2_PLACEMENT_3D ( 'NONE', #198, #214, #196 ) ;
#40 = EDGE_LOOP ( 'NONE', ( #28 ) ) ;
#41 = ORIENTED_EDGE ( 'NONE', *, *, #148, .F. ) ;
#42 = DIRECTION ( 'NONE',  ( -3.491481338843133355E-15, 4.327174794786742882E-16, -1.000000000000000000 ) ) ;
#43 = ORIENTED_EDGE ( 'NONE', *, *, #104, .F. ) ;
#44 = AXIS2_PLACEMENT_3D ( 'NONE', #250, #8, #165 ) ;
#45 = CC_DESIGN_PERSON_AND_ORGANIZATION_ASSIGNMENT ( #257, #157, ( #63 ) ) ;
#46 = DIRECTION ( 'NONE',  ( 0.0000000000000000000, -1.000000000000000000, 0.0000000000000000000 ) ) ;
#47 = EDGE_LOOP ( 'NONE', ( #43 ) ) ;
#48 = DIRECTION ( 'NONE',  ( -3.491481338843133355E-15, 1.224646799147353207E-16, -1.000000000000000000 ) ) ;
#49 = FACE_OUTER_BOUND ( 'NONE', #47, .T. ) ;
#50 = DIRECTION ( 'NONE',  ( -3.491481338843133355E-15, 1.224646799147353207E-16, -1.000000000000000000 ) ) ;
#51 = CIRCLE ( 'NONE', #138, 1.234074173710935751 ) ;
#52 = FACE_OUTER_BOUND ( 'NONE', #249, .T. ) ;
#53 = DIRECTION ( 'NONE',  ( -4.814824860968081750E-31, -1.000000000000000000, -1.355252715606878324E-16 ) ) ;
#54 = VERTEX_POINT ( 'NONE', #172 ) ;
#55 = EDGE_CURVE ( 'NONE', #126, #126, #102, .T. ) ;
#56 = CARTESIAN_POINT ( 'NONE',  ( 4.975803536857140396E-14, -1.499999999999998668, 14.25126773985801165 ) ) ;
#57 = PERSON_AND_ORGANIZATION ( #143, #139 ) ;
#58 = AXIS2_PLACEMENT_3D ( 'NONE', #208, #48, #124 ) ;
#59 = DATE_AND_TIME ( #37, #181 ) ;
#60 = PRODUCT_DEFINITION ( 'UNKNOWN', '', #63, #112 ) ;
#61 = CONICAL_SURFACE ( 'NONE', #242, 1.099999999999994982, 0.7853981633974428389 ) ;
#62 = CC_DESIGN_PERSON_AND_ORGANIZATION_ASSIGNMENT ( #57, #118, ( #60 ) ) ;
#63 = PRODUCT_DEFINITION_FORMATION_WITH_SPECIFIED_SOURCE ( 'ANY', '', #179, .NOT_KNOWN. ) ;
#64 = ORIENTED_EDGE ( 'NONE', *, *, #221, .T. ) ;
#65 = DIRECTION ( 'NONE',  ( -3.491481338843133355E-15, 4.327174794786742882E-16, -1.000000000000000000 ) ) ;
#66 = PRODUCT_DEFINITION_SHAPE ( 'NONE', 'NONE',  #60 ) ;
#67 = MANIFOLD_SOLID_BREP ( 'Corps-Déplacer/Copier1[2]', #240 ) ;
#68 = FACE_OUTER_BOUND ( 'NONE', #161, .T. ) ;
#69 = CLOSED_SHELL ( 'NONE', ( #190, #19, #77, #175, #120, #100, #71 ) ) ;
#70 = CYLINDRICAL_SURFACE ( 'NONE', #253, 1.200000000000001954 ) ;
#71 = ADVANCED_FACE ( 'NONE', ( #192 ), #115, .F. ) ;
#72 = VERTEX_POINT ( 'NONE', #146 ) ;
#73 = DIRECTION ( 'NONE',  ( 1.544019122595102220E-30, 1.000000000000000000, 4.327174794786742882E-16 ) ) ;
#74 = EDGE_LOOP ( 'NONE', ( #123 ) ) ;
#75 = LOCAL_TIME ( 13, 35, 48.00000000000000000, #35 ) ;
#76 = DATE_TIME_ROLE ( 'creation_date' ) ;
#77 = ADVANCED_FACE ( 'NONE', ( #34 ), #78, .F. ) ;
#78 = PLANE ( 'NONE',  #158 ) ;
#79 =( LENGTH_UNIT ( ) NAMED_UNIT ( * ) SI_UNIT ( .MILLI., .METRE. ) );
#80 = DATE_AND_TIME ( #212, #30 ) ;
#81 = ADVANCED_FACE ( 'NONE', ( #49 ), #31, .T. ) ;
#82 = EDGE_LOOP ( 'NONE', ( #243 ) ) ;
#83 = DIRECTION ( 'NONE',  ( 0.0000000000000000000, 1.000000000000000000, 0.0000000000000000000 ) ) ;
#84 = EDGE_CURVE ( 'NONE', #29, #29, #110, .T. ) ;
#85 = CARTESIAN_POINT ( 'NONE',  ( 0.0000000000000000000, 0.0000000000000000000, 0.0000000000000000000 ) ) ;
#86 = CARTESIAN_POINT ( 'NONE',  ( 1.731774744066194144E-13, -6.074248123770871868E-15, 49.60000000000000142 ) ) ;
#87 = EDGE_LOOP ( 'NONE', ( #245 ) ) ;
#88 = CYLINDRICAL_SURFACE ( 'NONE', #58, 1.499999999999992673 ) ;
#89 = ORIENTED_EDGE ( 'NONE', *, *, #216, .F. ) ;
#90 = FACE_OUTER_BOUND ( 'NONE', #261, .T. ) ;
#91 = CARTESIAN_POINT ( 'NONE',  ( 3.142333204958820651E-14, 1.124819836996384311E-32, 9.000000000000001776 ) ) ;
#92 = VERTEX_POINT ( 'NONE', #117 ) ;
#93 = DIRECTION ( 'NONE',  ( 3.491481338843133355E-15, -1.224646799147353207E-16, 1.000000000000000000 ) ) ;
#94 = APPROVAL_PERSON_ORGANIZATION ( #258, #177, #137 ) ;
#95 = APPLICATION_PROTOCOL_DEFINITION ( 'international standard', 'config_control_design', 1994, #21 ) ;
#96 = ADVANCED_FACE ( 'NONE', ( #230, #22 ), #70, .T. ) ;
#97 = VERTEX_POINT ( 'NONE', #174 ) ;
#98 = COORDINATED_UNIVERSAL_TIME_OFFSET ( 1, 0, .AHEAD. ) ;
#99 = SHAPE_DEFINITION_REPRESENTATION ( #66, #16 ) ;
#100 = ADVANCED_FACE ( 'NONE', ( #90, #162 ), #195, .F. ) ;
#101 = CALENDAR_DATE ( 2021, 13, 10 ) ;
#102 = CIRCLE ( 'NONE', #233, 1.200000000000001954 ) ;
#103 = UNCERTAINTY_MEASURE_WITH_UNIT (LENGTH_MEASURE( 1.000000000000000082E-05 ), #79, 'distance_accuracy_value', 'NONE');
#104 = EDGE_CURVE ( 'NONE', #72, #72, #134, .T. ) ;
#105 = DIRECTION ( 'NONE',  ( 3.491481338843133355E-15, -4.327174794786742882E-16, 1.000000000000000000 ) ) ;
#106 = DIRECTION ( 'NONE',  ( 4.275831445896958607E-31, 1.000000000000000000, 1.224646799147353207E-16 ) ) ;
#107 = ORIENTED_EDGE ( 'NONE', *, *, #55, .T. ) ;
#108 = CARTESIAN_POINT ( 'NONE',  ( 4.538925740496073362E-14, -5.625327233222765747E-15, 13.00000000000000000 ) ) ;
#109 = DIRECTION ( 'NONE',  ( 0.0000000000000000000, 1.000000000000000000, 0.0000000000000000000 ) ) ;
#110 = CIRCLE ( 'NONE', #213, 1.200000000000001954 ) ;
#111 = APPLICATION_CONTEXT ( 'configuration controlled 3d designs of mechanical parts and assemblies' ) ;
#112 = DESIGN_CONTEXT ( 'detailed design', #111, 'design' ) ;
#113 = FACE_OUTER_BOUND ( 'NONE', #74, .T. ) ;
#114 = SECURITY_CLASSIFICATION_LEVEL ( 'unclassified' ) ;
#115 = PLANE ( 'NONE',  #156 ) ;
#116 = CIRCLE ( 'NONE', #170, 1.499999999999995337 ) ;
#117 = CARTESIAN_POINT ( 'NONE',  ( 4.538925740496073362E-14, 1.199999999999998401, 13.00000000000000000 ) ) ;
#118 = PERSON_AND_ORGANIZATION_ROLE ( 'creator' ) ;
#119 = AXIS2_PLACEMENT_3D ( 'NONE', #85, #204, #27 ) ;
#120 = ADVANCED_FACE ( 'NONE', ( #6, #68 ), #226, .T. ) ;
#121 = COORDINATED_UNIVERSAL_TIME_OFFSET ( 1, 0, .AHEAD. ) ;
#122 = AXIS2_PLACEMENT_3D ( 'NONE', #201, #105, #182 ) ;
#123 = ORIENTED_EDGE ( 'NONE', *, *, #221, .F. ) ;
#124 = DIRECTION ( 'NONE',  ( 4.275831445896958607E-31, 1.000000000000000000, 1.224646799147353207E-16 ) ) ;
#125 = EDGE_LOOP ( 'NONE', ( #142 ) ) ;
#126 = VERTEX_POINT ( 'NONE', #205 ) ;
#127 = CARTESIAN_POINT ( 'NONE',  ( 4.629291927107338469E-14, -5.737322758060605391E-15, 13.25881904510251985 ) ) ;
#128 = DIRECTION ( 'NONE',  ( 0.0000000000000000000, 1.000000000000000000, 0.0000000000000000000 ) ) ;
#129 = SECURITY_CLASSIFICATION ( '', '', #114 ) ;
#130 = APPROVAL_PERSON_ORGANIZATION ( #133, #36, #136 ) ;
#131 = MECHANICAL_CONTEXT ( 'NONE', #21, 'mechanical' ) ;
#132 = CARTESIAN_POINT ( 'NONE',  ( 1.906192921252225361E-15, -6.686024735685296298E-17, 0.5459553513993068430 ) ) ;
#133 = PERSON_AND_ORGANIZATION ( #143, #139 ) ;
#134 = CIRCLE ( 'NONE', #150, 1.200000000000001954 ) ;
#135 = COORDINATED_UNIVERSAL_TIME_OFFSET ( 1, 0, .AHEAD. ) ;
#136 = APPROVAL_ROLE ( '' ) ;
#137 = APPROVAL_ROLE ( '' ) ;
#138 = AXIS2_PLACEMENT_3D ( 'NONE', #127, #65, #109 ) ;
#139 = ORGANIZATION ( 'UNSPECIFIED', 'UNSPECIFIED', '' ) ;
#140 = CC_DESIGN_DATE_AND_TIME_ASSIGNMENT ( #59, #76, ( #60 ) ) ;
#141 = FACE_OUTER_BOUND ( 'NONE', #211, .T. ) ;
#142 = ORIENTED_EDGE ( 'NONE', *, *, #151, .F. ) ;
#143 = PERSON ( 'UNSPECIFIED', 'UNSPECIFIED', 'UNSPECIFIED', ('UNSPECIFIED'), ('UNSPECIFIED'), ('UNSPECIFIED') ) ;
#144 = DIRECTION ( 'NONE',  ( 1.510825004591028030E-30, 1.000000000000000000, 4.327174794786742389E-16 ) ) ;
#145 = DIRECTION ( 'NONE',  ( -3.491481338843133355E-15, 1.224646799147353207E-16, -1.000000000000000000 ) ) ;
#146 = CARTESIAN_POINT ( 'NONE',  ( 3.142333204958820651E-14, -1.200000000000005951, 9.000000000000001776 ) ) ;
#147 = DIRECTION ( 'NONE',  ( 0.0000000000000000000, -1.000000000000000000, 0.0000000000000000000 ) ) ;
#148 = EDGE_CURVE ( 'NONE', #97, #97, #51, .T. ) ;
#149 = EDGE_LOOP ( 'NONE', ( #225 ) ) ;
#150 = AXIS2_PLACEMENT_3D ( 'NONE', #160, #163, #147 ) ;
#151 = EDGE_CURVE ( 'NONE', #252, #252, #17, .T. ) ;
#152 = APPROVAL_STATUS ( 'not_yet_approved' ) ;
#153 = CARTESIAN_POINT ( 'NONE',  ( 1.745740669421566678E-13, -6.123233995736766085E-15, 50.00000000000000000 ) ) ;
#154 = APPLICATION_PROTOCOL_DEFINITION ( 'international standard', 'config_control_design', 1994, #111 ) ;
#155 = CC_DESIGN_PERSON_AND_ORGANIZATION_ASSIGNMENT ( #236, #197, ( #179 ) ) ;
#156 = AXIS2_PLACEMENT_3D ( 'NONE', #91, #93, #169 ) ;
#157 = PERSON_AND_ORGANIZATION_ROLE ( 'creator' ) ;
#158 = AXIS2_PLACEMENT_3D ( 'NONE', #251, #231, #106 ) ;
#159 = CC_DESIGN_APPROVAL ( #177, ( #129 ) ) ;
#160 = CARTESIAN_POINT ( 'NONE',  ( 3.142333204958820651E-14, -3.894457315308068594E-15, 9.000000000000001776 ) ) ;
#161 = EDGE_LOOP ( 'NONE', ( #185 ) ) ;
#162 = FACE_OUTER_BOUND ( 'NONE', #87, .T. ) ;
#163 = DIRECTION ( 'NONE',  ( -3.491481338843133355E-15, 1.224646799147353207E-16, -1.000000000000000000 ) ) ;
#164 = APPROVAL_PERSON_ORGANIZATION ( #235, #203, #238 ) ;
#165 = DIRECTION ( 'NONE',  ( -4.275831445896958607E-31, -1.000000000000000000, -1.224646799147353207E-16 ) ) ;
#166 = CARTESIAN_POINT ( 'NONE',  ( 3.142333204958820651E-14, -3.894457315308068594E-15, 9.000000000000001776 ) ) ;
#167 = FACE_BOUND ( 'NONE', #82, .T. ) ;
#168 =( NAMED_UNIT ( * ) SI_UNIT ( $, .STERADIAN. ) SOLID_ANGLE_UNIT ( ) );
#169 = DIRECTION ( 'NONE',  ( -4.275831445896958607E-31, -1.000000000000000000, -1.224646799147353207E-16 ) ) ;
#170 = AXIS2_PLACEMENT_3D ( 'NONE', #86, #228, #191 ) ;
#171 = APPROVAL_STATUS ( 'not_yet_approved' ) ;
#172 = CARTESIAN_POINT ( 'NONE',  ( 1.731774744066194144E-13, 1.499999999999989120, 49.60000000000000142 ) ) ;
#173 = CC_DESIGN_APPROVAL ( #203, ( #60 ) ) ;
#174 = CARTESIAN_POINT ( 'NONE',  ( 4.629291927107338469E-14, 1.234074173710930200, 13.25881904510251985 ) ) ;
#175 = ADVANCED_FACE ( 'NONE', ( #141, #247 ), #248, .T. ) ;
#176 = DATE_AND_TIME ( #178, #217 ) ;
#177 = APPROVAL ( #15, 'UNSPECIFIED' ) ;
#178 = CALENDAR_DATE ( 2021, 13, 10 ) ;
#179 = PRODUCT ( '43304', '43304', '', ( #131 ) ) ;
#180 = ORIENTED_EDGE ( 'NONE', *, *, #84, .T. ) ;
#181 = LOCAL_TIME ( 13, 35, 48.00000000000000000, #135 ) ;
#182 = DIRECTION ( 'NONE',  ( 0.0000000000000000000, -1.000000000000000000, 0.0000000000000000000 ) ) ;
#183 = CARTESIAN_POINT ( 'NONE',  ( 4.538925740496072731E-14, -5.637851296924623057E-15, 12.99999999999999822 ) ) ;
#184 = DIRECTION ( 'NONE',  ( 0.0000000000000000000, 1.000000000000000000, 0.0000000000000000000 ) ) ;
#185 = ORIENTED_EDGE ( 'NONE', *, *, #260, .F. ) ;
#186 = CC_DESIGN_SECURITY_CLASSIFICATION ( #129, ( #63 ) ) ;
#187 = CARTESIAN_POINT ( 'NONE',  ( 3.142333204958820651E-14, -1.200000000000005951, 9.000000000000001776 ) ) ;
#188 = AXIS2_PLACEMENT_3D ( 'NONE', #132, #209, #234 ) ;
#189 = ORIENTED_EDGE ( 'NONE', *, *, #260, .T. ) ;
#190 = ADVANCED_FACE ( 'NONE', ( #224, #52 ), #88, .T. ) ;
#191 = DIRECTION ( 'NONE',  ( 0.0000000000000000000, 1.000000000000000000, 0.0000000000000000000 ) ) ;
#192 = FACE_OUTER_BOUND ( 'NONE', #206, .T. ) ;
#193 = PERSON_AND_ORGANIZATION ( #143, #139 ) ;
#194 = CARTESIAN_POINT ( 'NONE',  ( 1.524954337001793778E-15, -5.348819788548284000E-17, 0.4367642811194494268 ) ) ;
#195 = TOROIDAL_SURFACE ( 'NONE', #259, 2.200000000000004619, 1.000000000000000222 ) ;
#196 = DIRECTION ( 'NONE',  ( 1.000000000000000000, 0.0000000000000000000, 0.0000000000000000000 ) ) ;
#197 = PERSON_AND_ORGANIZATION_ROLE ( 'design_owner' ) ;
#198 = CARTESIAN_POINT ( 'NONE',  ( 0.0000000000000000000, 0.0000000000000000000, 0.0000000000000000000 ) ) ;
#199 = CONICAL_SURFACE ( 'NONE', #188, 1.499999999999989120, 1.221730476396026388 ) ;
#200 = PERSON_AND_ORGANIZATION_ROLE ( 'classification_officer' ) ;
#201 = CARTESIAN_POINT ( 'NONE',  ( 4.975803536857140396E-14, -6.166772655767102676E-15, 14.25126773985801165 ) ) ;
#202 = AXIS2_PLACEMENT_3D ( 'NONE', #227, #232, #46 ) ;
#203 = APPROVAL ( #171, 'UNSPECIFIED' ) ;
#204 = DIRECTION ( 'NONE',  ( -3.491481338843133355E-15, 4.327174794786742882E-16, -1.000000000000000000 ) ) ;
#205 = CARTESIAN_POINT ( 'NONE',  ( 1.524954337001793187E-15, -1.200000000000001954, 0.4367642811194492602 ) ) ;
#206 = EDGE_LOOP ( 'NONE', ( #180 ) ) ;
#207 = PRODUCT_RELATED_PRODUCT_CATEGORY ( 'detail', '', ( #179 ) ) ;
#208 = CARTESIAN_POINT ( 'NONE',  ( 0.0000000000000000000, 0.0000000000000000000, 0.0000000000000000000 ) ) ;
#209 = DIRECTION ( 'NONE',  ( 3.491481338843133355E-15, -1.224646799147353207E-16, 1.000000000000000000 ) ) ;
#210 = APPROVAL_DATE_TIME ( #80, #203 ) ;
#211 = EDGE_LOOP ( 'NONE', ( #229 ) ) ;
#212 = CALENDAR_DATE ( 2021, 13, 10 ) ;
#213 = AXIS2_PLACEMENT_3D ( 'NONE', #166, #244, #1 ) ;
#214 = DIRECTION ( 'NONE',  ( 0.0000000000000000000, 0.0000000000000000000, 1.000000000000000000 ) ) ;
#215 = CALENDAR_DATE ( 2021, 13, 10 ) ;
#216 = EDGE_CURVE ( 'NONE', #92, #92, #262, .T. ) ;
#217 = LOCAL_TIME ( 13, 35, 48.00000000000000000, #121 ) ;
#218 = DATE_TIME_ROLE ( 'classification_date' ) ;
#219 = DATE_AND_TIME ( #101, #14 ) ;
#220 =( GEOMETRIC_REPRESENTATION_CONTEXT ( 3 ) GLOBAL_UNCERTAINTY_ASSIGNED_CONTEXT ( ( #103 ) ) GLOBAL_UNIT_ASSIGNED_CONTEXT ( ( #79, #254, #168 ) ) REPRESENTATION_CONTEXT ( 'NONE', 'WORKASPACE' ) );
#221 = EDGE_CURVE ( 'NONE', #54, #54, #116, .T. ) ;
#222 = EDGE_LOOP ( 'NONE', ( #41 ) ) ;
#223 = CC_DESIGN_PERSON_AND_ORGANIZATION_ASSIGNMENT ( #193, #200, ( #129 ) ) ;
#224 = FACE_OUTER_BOUND ( 'NONE', #7, .T. ) ;
#225 = ORIENTED_EDGE ( 'NONE', *, *, #55, .F. ) ;
#226 = CONICAL_SURFACE ( 'NONE', #202, 2.000000000000000000, 0.2617993877991504625 ) ;
#227 = CARTESIAN_POINT ( 'NONE',  ( 5.627322824369207319E-14, -6.974234465135888897E-15, 16.11729314364247045 ) ) ;
#228 = DIRECTION ( 'NONE',  ( -3.491481338843133355E-15, 1.224646799147353207E-16, -1.000000000000000000 ) ) ;
#229 = ORIENTED_EDGE ( 'NONE', *, *, #216, .T. ) ;
#230 = FACE_OUTER_BOUND ( 'NONE', #4, .T. ) ;
#231 = DIRECTION ( 'NONE',  ( -3.491481338843133355E-15, 1.224646799147353207E-16, -1.000000000000000000 ) ) ;
#232 = DIRECTION ( 'NONE',  ( 3.491481338843133355E-15, -4.327174794786742882E-16, 1.000000000000000000 ) ) ;
#233 = AXIS2_PLACEMENT_3D ( 'NONE', #194, #32, #53 ) ;
#234 = DIRECTION ( 'NONE',  ( -5.135813185032666309E-31, -1.000000000000000000, -1.445602896647349763E-16 ) ) ;
#235 = PERSON_AND_ORGANIZATION ( #143, #139 ) ;
#236 = PERSON_AND_ORGANIZATION ( #143, #139 ) ;
#237 = MANIFOLD_SOLID_BREP ( 'Corps-Déplacer/Copier1[1]', #69 ) ;
#238 = APPROVAL_ROLE ( '' ) ;
#239 = PERSON_AND_ORGANIZATION ( #143, #139 ) ;
#240 = CLOSED_SHELL ( 'NONE', ( #24, #96, #81 ) ) ;
#241 = CC_DESIGN_APPROVAL ( #36, ( #63 ) ) ;
#242 = AXIS2_PLACEMENT_3D ( 'NONE', #153, #50, #128 ) ;
#243 = ORIENTED_EDGE ( 'NONE', *, *, #151, .T. ) ;
#244 = DIRECTION ( 'NONE',  ( -3.491481338843133355E-15, 1.224646799147353207E-16, -1.000000000000000000 ) ) ;
#245 = ORIENTED_EDGE ( 'NONE', *, *, #148, .T. ) ;
#246 = DIRECTION ( 'NONE',  ( -3.491481338843133355E-15, 4.327174794786742882E-16, -1.000000000000000000 ) ) ;
#247 = FACE_OUTER_BOUND ( 'NONE', #40, .T. ) ;
#248 = CYLINDRICAL_SURFACE ( 'NONE', #119, 1.200000000000001954 ) ;
#249 = EDGE_LOOP ( 'NONE', ( #64 ) ) ;
#250 = CARTESIAN_POINT ( 'NONE',  ( 3.142333204958820651E-14, 1.124819836996384311E-32, 9.000000000000001776 ) ) ;
#251 = CARTESIAN_POINT ( 'NONE',  ( 1.745740669421566678E-13, 8.248678804640089577E-33, 50.00000000000000000 ) ) ;
#252 = VERTEX_POINT ( 'NONE', #10 ) ;
#253 = AXIS2_PLACEMENT_3D ( 'NONE', #263, #3, #144 ) ;
#254 =( NAMED_UNIT ( * ) PLANE_ANGLE_UNIT ( ) SI_UNIT ( $, .RADIAN. ) );
#255 = COORDINATED_UNIVERSAL_TIME_OFFSET ( 1, 0, .AHEAD. ) ;
#256 = CIRCLE ( 'NONE', #122, 1.499999999999992673 ) ;
#257 = PERSON_AND_ORGANIZATION ( #143, #139 ) ;
#258 = PERSON_AND_ORGANIZATION ( #143, #139 ) ;
#259 = AXIS2_PLACEMENT_3D ( 'NONE', #183, #246, #73 ) ;
#260 = EDGE_CURVE ( 'NONE', #11, #11, #256, .T. ) ;
#261 = EDGE_LOOP ( 'NONE', ( #89 ) ) ;
#262 = CIRCLE ( 'NONE', #5, 1.200000000000003952 ) ;
#263 = CARTESIAN_POINT ( 'NONE',  ( 0.0000000000000000000, 0.0000000000000000000, 0.0000000000000000000 ) ) ;
ENDSEC;
END-ISO-10303-21;
