ISO-10303-21;
HEADER;
FILE_DESCRIPTION (( 'STEP AP203' ),
    '1' );
FILE_NAME ('43303.step',
    '2021-10-13T11:35:47',
    ( '' ),
    ( '' ),
    'SwSTEP 2.0',
    'SolidWorks 2019',
    '' );
FILE_SCHEMA (( 'CONFIG_CONTROL_DESIGN' ));
ENDSEC;

DATA;
#1 = CARTESIAN_POINT ( 'NONE',  ( 3.142333204958820651E-14, -1.150000000000006128, 9.000000000000001776 ) ) ;
#2 = DATE_AND_TIME ( #190, #128 ) ;
#3 = EDGE_LOOP ( 'NONE', ( #31 ) ) ;
#4 = AXIS2_PLACEMENT_3D ( 'NONE', #40, #182, #204 ) ;
#5 = EDGE_LOOP ( 'NONE', ( #137 ) ) ;
#6 = CARTESIAN_POINT ( 'NONE',  ( 0.0000000000000000000, 0.0000000000000000000, 0.0000000000000000000 ) ) ;
#7 = ORIENTED_EDGE ( 'NONE', *, *, #127, .F. ) ;
#8 = PERSON_AND_ORGANIZATION_ROLE ( 'creator' ) ;
#9 = EDGE_LOOP ( 'NONE', ( #7 ) ) ;
#10 = APPROVAL_ROLE ( '' ) ;
#11 = EDGE_LOOP ( 'NONE', ( #50 ) ) ;
#12 = ADVANCED_FACE ( 'NONE', ( #55 ), #151, .F. ) ;
#13 = PERSON ( 'UNSPECIFIED', 'UNSPECIFIED', 'UNSPECIFIED', ('UNSPECIFIED'), ('UNSPECIFIED'), ('UNSPECIFIED') ) ;
#14 = DESIGN_CONTEXT ( 'detailed design', #28, 'design' ) ;
#15 = DIRECTION ( 'NONE',  ( -5.135813185032666309E-31, -1.000000000000000000, -1.445602896647349763E-16 ) ) ;
#16 = CARTESIAN_POINT ( 'NONE',  ( 1.731774744066194144E-13, -6.074248123770871868E-15, 49.60000000000000142 ) ) ;
#17 = DIRECTION ( 'NONE',  ( 0.0000000000000000000, 1.000000000000000000, 0.0000000000000000000 ) ) ;
#18 = ADVANCED_FACE ( 'NONE', ( #29, #113 ), #195, .T. ) ;
#19 = AXIS2_PLACEMENT_3D ( 'NONE', #162, #62, #37 ) ;
#20 = DIRECTION ( 'NONE',  ( 0.0000000000000000000, -1.000000000000000000, 0.0000000000000000000 ) ) ;
#21 = DIRECTION ( 'NONE',  ( 4.275831445896958607E-31, 1.000000000000000000, 1.224646799147353207E-16 ) ) ;
#22 = DIRECTION ( 'NONE',  ( 1.000000000000000000, 0.0000000000000000000, 0.0000000000000000000 ) ) ;
#23 = DIRECTION ( 'NONE',  ( 0.0000000000000000000, -1.000000000000000000, 0.0000000000000000000 ) ) ;
#24 = CIRCLE ( 'NONE', #200, 1.150000000000002132 ) ;
#25 =( NAMED_UNIT ( * ) SI_UNIT ( $, .STERADIAN. ) SOLID_ANGLE_UNIT ( ) );
#26 = CARTESIAN_POINT ( 'NONE',  ( 0.0000000000000000000, 0.0000000000000000000, 0.0000000000000000000 ) ) ;
#27 = EDGE_CURVE ( 'NONE', #175, #175, #263, .T. ) ;
#28 = APPLICATION_CONTEXT ( 'configuration controlled 3d designs of mechanical parts and assemblies' ) ;
#29 = FACE_OUTER_BOUND ( 'NONE', #158, .T. ) ;
#30 = CALENDAR_DATE ( 2021, 13, 10 ) ;
#31 = ORIENTED_EDGE ( 'NONE', *, *, #188, .F. ) ;
#32 = APPROVAL_DATE_TIME ( #156, #238 ) ;
#33 = EDGE_CURVE ( 'NONE', #43, #43, #51, .T. ) ;
#34 = EDGE_LOOP ( 'NONE', ( #69 ) ) ;
#35 = LOCAL_TIME ( 13, 35, 47.00000000000000000, #211 ) ;
#36 = FACE_OUTER_BOUND ( 'NONE', #5, .T. ) ;
#37 = DIRECTION ( 'NONE',  ( -5.024165072314518602E-31, -1.000000000000000000, -1.414176746720220442E-16 ) ) ;
#38 = AXIS2_PLACEMENT_3D ( 'NONE', #100, #209, #15 ) ;
#39 = LOCAL_TIME ( 13, 35, 47.00000000000000000, #177 ) ;
#40 = CARTESIAN_POINT ( 'NONE',  ( 4.629291927107338469E-14, -5.737322758060605391E-15, 13.25881904510251985 ) ) ;
#41 = CARTESIAN_POINT ( 'NONE',  ( 4.629291927107338469E-14, 1.184074173710930378, 13.25881904510251985 ) ) ;
#42 = APPROVAL_STATUS ( 'not_yet_approved' ) ;
#43 = VERTEX_POINT ( 'NONE', #212 ) ;
#44 = AXIS2_PLACEMENT_3D ( 'NONE', #260, #103, #17 ) ;
#45 = MECHANICAL_CONTEXT ( 'NONE', #242, 'mechanical' ) ;
#46 = PRODUCT_DEFINITION_SHAPE ( 'NONE', 'NONE',  #251 ) ;
#47 = DIRECTION ( 'NONE',  ( -3.491481338843133355E-15, 4.327174794786742882E-16, -1.000000000000000000 ) ) ;
#48 = DIRECTION ( 'NONE',  ( 3.491481338843133355E-15, -1.224646799147353207E-16, 1.000000000000000000 ) ) ;
#49 = AXIS2_PLACEMENT_3D ( 'NONE', #121, #104, #120 ) ;
#50 = ORIENTED_EDGE ( 'NONE', *, *, #127, .T. ) ;
#51 = CIRCLE ( 'NONE', #189, 1.499999999999992673 ) ;
#52 = APPROVAL_ROLE ( '' ) ;
#53 = CC_DESIGN_PERSON_AND_ORGANIZATION_ASSIGNMENT ( #129, #229, ( #174 ) ) ;
#54 = EDGE_LOOP ( 'NONE', ( #235 ) ) ;
#55 = FACE_OUTER_BOUND ( 'NONE', #232, .T. ) ;
#56 = CIRCLE ( 'NONE', #44, 1.099999999999994982 ) ;
#57 = CARTESIAN_POINT ( 'NONE',  ( 3.142333204958820651E-14, 1.124819836996384311E-32, 9.000000000000001776 ) ) ;
#58 = AXIS2_PLACEMENT_3D ( 'NONE', #163, #241, #59 ) ;
#59 = DIRECTION ( 'NONE',  ( 1.510825004591028030E-30, 1.000000000000000000, 4.327174794786742882E-16 ) ) ;
#60 = ADVANCED_FACE ( 'NONE', ( #207 ), #124, .F. ) ;
#61 = CARTESIAN_POINT ( 'NONE',  ( 3.142333204958820651E-14, -3.894457315308068594E-15, 9.000000000000001776 ) ) ;
#62 = DIRECTION ( 'NONE',  ( -3.491481338843133355E-15, 1.224646799147353207E-16, -1.000000000000000000 ) ) ;
#63 = AXIS2_PLACEMENT_3D ( 'NONE', #26, #47, #171 ) ;
#64 = FACE_OUTER_BOUND ( 'NONE', #3, .T. ) ;
#65 = EDGE_CURVE ( 'NONE', #249, #249, #56, .T. ) ;
#66 =( LENGTH_UNIT ( ) NAMED_UNIT ( * ) SI_UNIT ( .MILLI., .METRE. ) );
#67 = AXIS2_PLACEMENT_3D ( 'NONE', #203, #257, #139 ) ;
#68 = ADVANCED_FACE ( 'NONE', ( #36, #99 ), #89, .T. ) ;
#69 = ORIENTED_EDGE ( 'NONE', *, *, #65, .T. ) ;
#70 = ORIENTED_EDGE ( 'NONE', *, *, #236, .T. ) ;
#71 = CARTESIAN_POINT ( 'NONE',  ( 3.142333204958820651E-14, -3.894457315308068594E-15, 9.000000000000001776 ) ) ;
#72 = CALENDAR_DATE ( 2021, 13, 10 ) ;
#73 = EDGE_LOOP ( 'NONE', ( #131 ) ) ;
#74 = PERSON_AND_ORGANIZATION_ROLE ( 'design_supplier' ) ;
#75 = EDGE_LOOP ( 'NONE', ( #176 ) ) ;
#76 = DIRECTION ( 'NONE',  ( 3.491481338843133355E-15, -4.327174794786742882E-16, 1.000000000000000000 ) ) ;
#77 = APPROVAL ( #95, 'UNSPECIFIED' ) ;
#78 = CYLINDRICAL_SURFACE ( 'NONE', #58, 1.150000000000002132 ) ;
#79 = AXIS2_PLACEMENT_3D ( 'NONE', #94, #219, #21 ) ;
#80 = FACE_OUTER_BOUND ( 'NONE', #116, .T. ) ;
#81 = FACE_OUTER_BOUND ( 'NONE', #73, .T. ) ;
#82 = ADVANCED_BREP_SHAPE_REPRESENTATION ( '43303', ( #228, #227, #133 ), #226 ) ;
#83 = DIRECTION ( 'NONE',  ( 3.491481338843133355E-15, -1.224646799147353207E-16, 1.000000000000000000 ) ) ;
#84 = CC_DESIGN_DATE_AND_TIME_ASSIGNMENT ( #2, #88, ( #251 ) ) ;
#85 = AXIS2_PLACEMENT_3D ( 'NONE', #16, #187, #222 ) ;
#86 = CARTESIAN_POINT ( 'NONE',  ( 3.142333204958820651E-14, -1.150000000000006128, 9.000000000000001776 ) ) ;
#87 = DATE_AND_TIME ( #107, #35 ) ;
#88 = DATE_TIME_ROLE ( 'creation_date' ) ;
#89 = CONICAL_SURFACE ( 'NONE', #202, 1.099999999999994982, 0.7853981633974428389 ) ;
#90 = CARTESIAN_POINT ( 'NONE',  ( 1.461414572960051829E-15, -1.150000000000002132, 0.4185657694061388767 ) ) ;
#91 = APPROVAL_PERSON_ORGANIZATION ( #252, #238, #10 ) ;
#92 = ORIENTED_EDGE ( 'NONE', *, *, #188, .T. ) ;
#93 = CARTESIAN_POINT ( 'NONE',  ( 1.731774744066194144E-13, 1.499999999999989120, 49.60000000000000142 ) ) ;
#94 = CARTESIAN_POINT ( 'NONE',  ( 0.0000000000000000000, 0.0000000000000000000, 0.0000000000000000000 ) ) ;
#95 = APPROVAL_STATUS ( 'not_yet_approved' ) ;
#96 = SHAPE_DEFINITION_REPRESENTATION ( #46, #82 ) ;
#97 = CIRCLE ( 'NONE', #180, 1.150000000000002132 ) ;
#98 = APPROVAL ( #42, 'UNSPECIFIED' ) ;
#99 = FACE_BOUND ( 'NONE', #34, .T. ) ;
#100 = CARTESIAN_POINT ( 'NONE',  ( 1.906192921252225361E-15, -6.686024735685296298E-17, 0.5459553513993068430 ) ) ;
#101 = DIRECTION ( 'NONE',  ( 0.0000000000000000000, 1.000000000000000000, 0.0000000000000000000 ) ) ;
#102 = AXIS2_PLACEMENT_3D ( 'NONE', #221, #167, #245 ) ;
#103 = DIRECTION ( 'NONE',  ( -3.491481338843133355E-15, 1.224646799147353207E-16, -1.000000000000000000 ) ) ;
#104 = DIRECTION ( 'NONE',  ( -3.491481338843133355E-15, 4.327174794786742882E-16, -1.000000000000000000 ) ) ;
#105 = CC_DESIGN_PERSON_AND_ORGANIZATION_ASSIGNMENT ( #115, #8, ( #253 ) ) ;
#106 = CC_DESIGN_APPROVAL ( #98, ( #251 ) ) ;
#107 = CALENDAR_DATE ( 2021, 13, 10 ) ;
#108 = EDGE_CURVE ( 'NONE', #149, #149, #24, .T. ) ;
#109 = COORDINATED_UNIVERSAL_TIME_OFFSET ( 1, 0, .AHEAD. ) ;
#110 = VERTEX_POINT ( 'NONE', #90 ) ;
#111 = EDGE_LOOP ( 'NONE', ( #198 ) ) ;
#112 = AXIS2_PLACEMENT_3D ( 'NONE', #220, #145, #206 ) ;
#113 = FACE_OUTER_BOUND ( 'NONE', #54, .T. ) ;
#114 = APPROVAL_STATUS ( 'not_yet_approved' ) ;
#115 = PERSON_AND_ORGANIZATION ( #13, #118 ) ;
#116 = EDGE_LOOP ( 'NONE', ( #250 ) ) ;
#117 = FACE_BOUND ( 'NONE', #9, .T. ) ;
#118 = ORGANIZATION ( 'UNSPECIFIED', 'UNSPECIFIED', '' ) ;
#119 = DIRECTION ( 'NONE',  ( -3.491481338843133355E-15, 1.224646799147353207E-16, -1.000000000000000000 ) ) ;
#120 = DIRECTION ( 'NONE',  ( 0.0000000000000000000, 1.000000000000000000, 0.0000000000000000000 ) ) ;
#121 = CARTESIAN_POINT ( 'NONE',  ( 4.538925740496073362E-14, -5.625327233222765747E-15, 13.00000000000000000 ) ) ;
#122 = CLOSED_SHELL ( 'NONE', ( #157, #205, #166 ) ) ;
#123 = CC_DESIGN_APPROVAL ( #238, ( #144 ) ) ;
#124 = PLANE ( 'NONE',  #67 ) ;
#125 =( NAMED_UNIT ( * ) PLANE_ANGLE_UNIT ( ) SI_UNIT ( $, .RADIAN. ) );
#126 = APPROVAL_ROLE ( '' ) ;
#127 = EDGE_CURVE ( 'NONE', #214, #214, #143, .T. ) ;
#128 = LOCAL_TIME ( 13, 35, 47.00000000000000000, #109 ) ;
#129 = PERSON_AND_ORGANIZATION ( #13, #118 ) ;
#130 = CARTESIAN_POINT ( 'NONE',  ( 1.745740669421566678E-13, 1.099999999999988987, 50.00000000000000000 ) ) ;
#131 = ORIENTED_EDGE ( 'NONE', *, *, #27, .T. ) ;
#132 = EDGE_CURVE ( 'NONE', #169, #169, #138, .T. ) ;
#133 = AXIS2_PLACEMENT_3D ( 'NONE', #6, #210, #22 ) ;
#134 = DATE_AND_TIME ( #199, #164 ) ;
#135 = APPROVAL_DATE_TIME ( #134, #77 ) ;
#136 = EDGE_LOOP ( 'NONE', ( #218 ) ) ;
#137 = ORIENTED_EDGE ( 'NONE', *, *, #132, .F. ) ;
#138 = CIRCLE ( 'NONE', #85, 1.499999999999995337 ) ;
#139 = DIRECTION ( 'NONE',  ( 4.275831445896958607E-31, 1.000000000000000000, 1.224646799147353207E-16 ) ) ;
#140 = FACE_OUTER_BOUND ( 'NONE', #111, .T. ) ;
#141 = FACE_OUTER_BOUND ( 'NONE', #75, .T. ) ;
#142 = DIRECTION ( 'NONE',  ( -3.491481338843133355E-15, 1.224646799147353207E-16, -1.000000000000000000 ) ) ;
#143 = CIRCLE ( 'NONE', #4, 1.184074173710936151 ) ;
#144 = SECURITY_CLASSIFICATION ( '', '', #196 ) ;
#145 = DIRECTION ( 'NONE',  ( -3.491481338843133355E-15, 4.327174794786742882E-16, -1.000000000000000000 ) ) ;
#146 = CC_DESIGN_PERSON_AND_ORGANIZATION_ASSIGNMENT ( #179, #216, ( #144 ) ) ;
#147 = APPLICATION_PROTOCOL_DEFINITION ( 'international standard', 'config_control_design', 1994, #28 ) ;
#148 = PERSON_AND_ORGANIZATION_ROLE ( 'creator' ) ;
#149 = VERTEX_POINT ( 'NONE', #1 ) ;
#150 = EDGE_LOOP ( 'NONE', ( #248 ) ) ;
#151 = PLANE ( 'NONE',  #173 ) ;
#152 = CARTESIAN_POINT ( 'NONE',  ( 4.538925740496073362E-14, 1.149999999999998579, 13.00000000000000000 ) ) ;
#153 = EDGE_LOOP ( 'NONE', ( #255 ) ) ;
#154 = APPROVAL_PERSON_ORGANIZATION ( #223, #98, #126 ) ;
#155 = COORDINATED_UNIVERSAL_TIME_OFFSET ( 1, 0, .AHEAD. ) ;
#156 = DATE_AND_TIME ( #72, #237 ) ;
#157 = ADVANCED_FACE ( 'NONE', ( #261 ), #208, .T. ) ;
#158 = EDGE_LOOP ( 'NONE', ( #172 ) ) ;
#159 = UNCERTAINTY_MEASURE_WITH_UNIT (LENGTH_MEASURE( 1.000000000000000082E-05 ), #66, 'distance_accuracy_value', 'NONE');
#160 = CC_DESIGN_SECURITY_CLASSIFICATION ( #144, ( #253 ) ) ;
#161 = CC_DESIGN_DATE_AND_TIME_ASSIGNMENT ( #234, #254, ( #144 ) ) ;
#162 = CARTESIAN_POINT ( 'NONE',  ( 1.461414572960052420E-15, -5.125952297358772604E-17, 0.4185657694061390433 ) ) ;
#163 = CARTESIAN_POINT ( 'NONE',  ( 0.0000000000000000000, 0.0000000000000000000, 0.0000000000000000000 ) ) ;
#164 = LOCAL_TIME ( 13, 35, 47.00000000000000000, #155 ) ;
#165 = CYLINDRICAL_SURFACE ( 'NONE', #63, 1.150000000000002132 ) ;
#166 = ADVANCED_FACE ( 'NONE', ( #186 ), #183, .T. ) ;
#167 = DIRECTION ( 'NONE',  ( 3.491481338843133355E-15, -4.327174794786742882E-16, 1.000000000000000000 ) ) ;
#168 = CLOSED_SHELL ( 'NONE', ( #18, #68, #60, #197, #181, #201, #12 ) ) ;
#169 = VERTEX_POINT ( 'NONE', #93 ) ;
#170 = PERSON_AND_ORGANIZATION ( #13, #118 ) ;
#171 = DIRECTION ( 'NONE',  ( 1.510825004591028030E-30, 1.000000000000000000, 4.327174794786742882E-16 ) ) ;
#172 = ORIENTED_EDGE ( 'NONE', *, *, #33, .T. ) ;
#173 = AXIS2_PLACEMENT_3D ( 'NONE', #230, #48, #215 ) ;
#174 = PRODUCT ( '43303', '43303', '', ( #45 ) ) ;
#175 = VERTEX_POINT ( 'NONE', #152 ) ;
#176 = ORIENTED_EDGE ( 'NONE', *, *, #33, .F. ) ;
#177 = COORDINATED_UNIVERSAL_TIME_OFFSET ( 1, 0, .AHEAD. ) ;
#178 = AXIS2_PLACEMENT_3D ( 'NONE', #57, #83, #258 ) ;
#179 = PERSON_AND_ORGANIZATION ( #13, #118 ) ;
#180 = AXIS2_PLACEMENT_3D ( 'NONE', #71, #194, #23 ) ;
#181 = ADVANCED_FACE ( 'NONE', ( #117, #141 ), #193, .T. ) ;
#182 = DIRECTION ( 'NONE',  ( -3.491481338843133355E-15, 4.327174794786742882E-16, -1.000000000000000000 ) ) ;
#183 = PLANE ( 'NONE',  #178 ) ;
#184 = PRODUCT_RELATED_PRODUCT_CATEGORY ( 'detail', '', ( #174 ) ) ;
#185 = FACE_OUTER_BOUND ( 'NONE', #11, .T. ) ;
#186 = FACE_OUTER_BOUND ( 'NONE', #150, .T. ) ;
#187 = DIRECTION ( 'NONE',  ( -3.491481338843133355E-15, 1.224646799147353207E-16, -1.000000000000000000 ) ) ;
#188 = EDGE_CURVE ( 'NONE', #110, #110, #247, .T. ) ;
#189 = AXIS2_PLACEMENT_3D ( 'NONE', #244, #76, #259 ) ;
#190 = CALENDAR_DATE ( 2021, 13, 10 ) ;
#191 = CC_DESIGN_PERSON_AND_ORGANIZATION_ASSIGNMENT ( #231, #74, ( #253 ) ) ;
#192 = EDGE_LOOP ( 'NONE', ( #92 ) ) ;
#193 = CONICAL_SURFACE ( 'NONE', #102, 2.000000000000000000, 0.2617993877991505736 ) ;
#194 = DIRECTION ( 'NONE',  ( -3.491481338843133355E-15, 1.224646799147353207E-16, -1.000000000000000000 ) ) ;
#195 = CYLINDRICAL_SURFACE ( 'NONE', #79, 1.499999999999992673 ) ;
#196 = SECURITY_CLASSIFICATION_LEVEL ( 'unclassified' ) ;
#197 = ADVANCED_FACE ( 'NONE', ( #81, #239 ), #78, .T. ) ;
#198 = ORIENTED_EDGE ( 'NONE', *, *, #27, .F. ) ;
#199 = CALENDAR_DATE ( 2021, 13, 10 ) ;
#200 = AXIS2_PLACEMENT_3D ( 'NONE', #61, #142, #20 ) ;
#201 = ADVANCED_FACE ( 'NONE', ( #140, #185 ), #233, .F. ) ;
#202 = AXIS2_PLACEMENT_3D ( 'NONE', #243, #119, #101 ) ;
#203 = CARTESIAN_POINT ( 'NONE',  ( 1.745740669421566678E-13, 8.248678804640089577E-33, 50.00000000000000000 ) ) ;
#204 = DIRECTION ( 'NONE',  ( 0.0000000000000000000, 1.000000000000000000, 0.0000000000000000000 ) ) ;
#205 = ADVANCED_FACE ( 'NONE', ( #80, #64 ), #165, .T. ) ;
#206 = DIRECTION ( 'NONE',  ( 1.544546013357071682E-30, 1.000000000000000000, 4.327174794786742882E-16 ) ) ;
#207 = FACE_OUTER_BOUND ( 'NONE', #153, .T. ) ;
#208 = CONICAL_SURFACE ( 'NONE', #38, 1.499999999999989120, 1.221730476396026388 ) ;
#209 = DIRECTION ( 'NONE',  ( 3.491481338843133355E-15, -1.224646799147353207E-16, 1.000000000000000000 ) ) ;
#210 = DIRECTION ( 'NONE',  ( 0.0000000000000000000, 0.0000000000000000000, 1.000000000000000000 ) ) ;
#211 = COORDINATED_UNIVERSAL_TIME_OFFSET ( 1, 0, .AHEAD. ) ;
#212 = CARTESIAN_POINT ( 'NONE',  ( 5.040955465608346141E-14, -1.499999999999998890, 14.43787028023645469 ) ) ;
#213 = VERTEX_POINT ( 'NONE', #86 ) ;
#214 = VERTEX_POINT ( 'NONE', #41 ) ;
#215 = DIRECTION ( 'NONE',  ( -4.275831445896958607E-31, -1.000000000000000000, -1.224646799147353207E-16 ) ) ;
#216 = PERSON_AND_ORGANIZATION_ROLE ( 'classification_officer' ) ;
#217 = COORDINATED_UNIVERSAL_TIME_OFFSET ( 1, 0, .AHEAD. ) ;
#218 = ORIENTED_EDGE ( 'NONE', *, *, #236, .F. ) ;
#219 = DIRECTION ( 'NONE',  ( -3.491481338843133355E-15, 1.224646799147353207E-16, -1.000000000000000000 ) ) ;
#220 = CARTESIAN_POINT ( 'NONE',  ( 4.538925740496072731E-14, -5.637851296924623057E-15, 12.99999999999999822 ) ) ;
#221 = CARTESIAN_POINT ( 'NONE',  ( 5.692474753120411172E-14, -7.054980646072764837E-15, 16.30389568402091172 ) ) ;
#222 = DIRECTION ( 'NONE',  ( 0.0000000000000000000, 1.000000000000000000, 0.0000000000000000000 ) ) ;
#223 = PERSON_AND_ORGANIZATION ( #13, #118 ) ;
#224 = APPROVAL_DATE_TIME ( #87, #98 ) ;
#225 = CC_DESIGN_PERSON_AND_ORGANIZATION_ASSIGNMENT ( #170, #148, ( #251 ) ) ;
#226 =( GEOMETRIC_REPRESENTATION_CONTEXT ( 3 ) GLOBAL_UNCERTAINTY_ASSIGNED_CONTEXT ( ( #159 ) ) GLOBAL_UNIT_ASSIGNED_CONTEXT ( ( #66, #125, #25 ) ) REPRESENTATION_CONTEXT ( 'NONE', 'WORKASPACE' ) );
#227 = MANIFOLD_SOLID_BREP ( 'Corps-Déplacer/Copier1[2]', #122 ) ;
#228 = MANIFOLD_SOLID_BREP ( 'Corps-Déplacer/Copier1[1]', #168 ) ;
#229 = PERSON_AND_ORGANIZATION_ROLE ( 'design_owner' ) ;
#230 = CARTESIAN_POINT ( 'NONE',  ( 3.142333204958820651E-14, 1.124819836996384311E-32, 9.000000000000001776 ) ) ;
#231 = PERSON_AND_ORGANIZATION ( #13, #118 ) ;
#232 = EDGE_LOOP ( 'NONE', ( #70 ) ) ;
#233 = TOROIDAL_SURFACE ( 'NONE', #112, 2.150000000000004796, 1.000000000000000222 ) ;
#234 = DATE_AND_TIME ( #30, #39 ) ;
#235 = ORIENTED_EDGE ( 'NONE', *, *, #132, .T. ) ;
#236 = EDGE_CURVE ( 'NONE', #213, #213, #97, .T. ) ;
#237 = LOCAL_TIME ( 13, 35, 47.00000000000000000, #217 ) ;
#238 = APPROVAL ( #114, 'UNSPECIFIED' ) ;
#239 = FACE_OUTER_BOUND ( 'NONE', #136, .T. ) ;
#240 = APPROVAL_PERSON_ORGANIZATION ( #246, #77, #52 ) ;
#241 = DIRECTION ( 'NONE',  ( -3.491481338843133355E-15, 4.327174794786742882E-16, -1.000000000000000000 ) ) ;
#242 = APPLICATION_CONTEXT ( 'configuration controlled 3d designs of mechanical parts and assemblies' ) ;
#243 = CARTESIAN_POINT ( 'NONE',  ( 1.745740669421566678E-13, -6.123233995736766085E-15, 50.00000000000000000 ) ) ;
#244 = CARTESIAN_POINT ( 'NONE',  ( 5.040955465608346141E-14, -6.247518836703978616E-15, 14.43787028023645469 ) ) ;
#245 = DIRECTION ( 'NONE',  ( 0.0000000000000000000, -1.000000000000000000, 0.0000000000000000000 ) ) ;
#246 = PERSON_AND_ORGANIZATION ( #13, #118 ) ;
#247 = CIRCLE ( 'NONE', #19, 1.150000000000002132 ) ;
#248 = ORIENTED_EDGE ( 'NONE', *, *, #108, .F. ) ;
#249 = VERTEX_POINT ( 'NONE', #130 ) ;
#250 = ORIENTED_EDGE ( 'NONE', *, *, #108, .T. ) ;
#251 = PRODUCT_DEFINITION ( 'UNKNOWN', '', #253, #14 ) ;
#252 = PERSON_AND_ORGANIZATION ( #13, #118 ) ;
#253 = PRODUCT_DEFINITION_FORMATION_WITH_SPECIFIED_SOURCE ( 'ANY', '', #174, .NOT_KNOWN. ) ;
#254 = DATE_TIME_ROLE ( 'classification_date' ) ;
#255 = ORIENTED_EDGE ( 'NONE', *, *, #65, .F. ) ;
#256 = CC_DESIGN_APPROVAL ( #77, ( #253 ) ) ;
#257 = DIRECTION ( 'NONE',  ( -3.491481338843133355E-15, 1.224646799147353207E-16, -1.000000000000000000 ) ) ;
#258 = DIRECTION ( 'NONE',  ( -4.275831445896958607E-31, -1.000000000000000000, -1.224646799147353207E-16 ) ) ;
#259 = DIRECTION ( 'NONE',  ( 0.0000000000000000000, -1.000000000000000000, 0.0000000000000000000 ) ) ;
#260 = CARTESIAN_POINT ( 'NONE',  ( 1.745740669421566678E-13, -6.123233995736766085E-15, 50.00000000000000000 ) ) ;
#261 = FACE_OUTER_BOUND ( 'NONE', #192, .T. ) ;
#262 = APPLICATION_PROTOCOL_DEFINITION ( 'international standard', 'config_control_design', 1994, #242 ) ;
#263 = CIRCLE ( 'NONE', #49, 1.150000000000004352 ) ;
ENDSEC;
END-ISO-10303-21;
