ISO-10303-21;
HEADER;
FILE_DESCRIPTION (( 'STEP AP203' ),
    '1' );
FILE_NAME ('43302.step',
    '2021-10-13T11:35:47',
    ( '' ),
    ( '' ),
    'SwSTEP 2.0',
    'SolidWorks 2019',
    '' );
FILE_SCHEMA (( 'CONFIG_CONTROL_DESIGN' ));
ENDSEC;

DATA;
#1 = CLOSED_SHELL ( 'NONE', ( #134, #44, #103, #59, #155, #74, #81 ) ) ;
#2 = FACE_OUTER_BOUND ( 'NONE', #257, .T. ) ;
#3 = VERTEX_POINT ( 'NONE', #119 ) ;
#4 = DIRECTION ( 'NONE',  ( 1.000000000000000000, 0.0000000000000000000, 0.0000000000000000000 ) ) ;
#5 = PERSON_AND_ORGANIZATION_ROLE ( 'creator' ) ;
#6 = EDGE_CURVE ( 'NONE', #48, #48, #191, .T. ) ;
#7 = CARTESIAN_POINT ( 'NONE',  ( 4.629291927107338469E-14, 1.134074173710930555, 13.25881904510251985 ) ) ;
#8 = PRODUCT ( '43302', '43302', '', ( #138 ) ) ;
#9 = AXIS2_PLACEMENT_3D ( 'NONE', #149, #25, #117 ) ;
#10 = ORIENTED_EDGE ( 'NONE', *, *, #89, .F. ) ;
#11 = UNCERTAINTY_MEASURE_WITH_UNIT (LENGTH_MEASURE( 1.000000000000000082E-05 ), #211, 'distance_accuracy_value', 'NONE');
#12 = ADVANCED_FACE ( 'NONE', ( #216 ), #34, .T. ) ;
#13 = EDGE_LOOP ( 'NONE', ( #36 ) ) ;
#14 = APPROVAL_DATE_TIME ( #63, #254 ) ;
#15 = EDGE_LOOP ( 'NONE', ( #82 ) ) ;
#16 = ORIENTED_EDGE ( 'NONE', *, *, #161, .T. ) ;
#17 = APPROVAL ( #249, 'UNSPECIFIED' ) ;
#18 = DATE_AND_TIME ( #78, #46 ) ;
#19 = DIRECTION ( 'NONE',  ( -3.491481338843133355E-15, 1.224646799147353207E-16, -1.000000000000000000 ) ) ;
#20 = AXIS2_PLACEMENT_3D ( 'NONE', #130, #87, #190 ) ;
#21 = CARTESIAN_POINT ( 'NONE',  ( 4.629291927107338469E-14, -5.737322758060605391E-15, 13.25881904510251985 ) ) ;
#22 = CYLINDRICAL_SURFACE ( 'NONE', #152, 1.100000000000002309 ) ;
#23 = CARTESIAN_POINT ( 'NONE',  ( 1.397874808918311654E-15, -4.903084806169261823E-17, 0.4003672576928287707 ) ) ;
#24 =( GEOMETRIC_REPRESENTATION_CONTEXT ( 3 ) GLOBAL_UNCERTAINTY_ASSIGNED_CONTEXT ( ( #11 ) ) GLOBAL_UNIT_ASSIGNED_CONTEXT ( ( #211, #80, #235 ) ) REPRESENTATION_CONTEXT ( 'NONE', 'WORKASPACE' ) );
#25 = DIRECTION ( 'NONE',  ( -3.491481338843133355E-15, 4.327174794786742882E-16, -1.000000000000000000 ) ) ;
#26 = APPLICATION_CONTEXT ( 'configuration controlled 3d designs of mechanical parts and assemblies' ) ;
#27 = CARTESIAN_POINT ( 'NONE',  ( 3.142333204958820651E-14, -1.100000000000006084, 9.000000000000001776 ) ) ;
#28 = CIRCLE ( 'NONE', #202, 1.499999999999992673 ) ;
#29 = COORDINATED_UNIVERSAL_TIME_OFFSET ( 1, 0, .AHEAD. ) ;
#30 = VERTEX_POINT ( 'NONE', #252 ) ;
#31 = AXIS2_PLACEMENT_3D ( 'NONE', #195, #100, #35 ) ;
#32 = DIRECTION ( 'NONE',  ( 3.491481338843133355E-15, -1.224646799147353207E-16, 1.000000000000000000 ) ) ;
#33 = PRODUCT_DEFINITION ( 'UNKNOWN', '', #98, #175 ) ;
#34 = PLANE ( 'NONE',  #180 ) ;
#35 = DIRECTION ( 'NONE',  ( 1.510825004591027679E-30, 1.000000000000000000, 4.327174794786742389E-16 ) ) ;
#36 = ORIENTED_EDGE ( 'NONE', *, *, #124, .T. ) ;
#37 = CIRCLE ( 'NONE', #41, 1.499999999999995337 ) ;
#38 = CARTESIAN_POINT ( 'NONE',  ( 1.745740669421566678E-13, -6.123233995736766085E-15, 50.00000000000000000 ) ) ;
#39 = DIRECTION ( 'NONE',  ( -3.491481338843133355E-15, 4.327174794786742882E-16, -1.000000000000000000 ) ) ;
#40 = FACE_OUTER_BOUND ( 'NONE', #238, .T. ) ;
#41 = AXIS2_PLACEMENT_3D ( 'NONE', #208, #67, #260 ) ;
#42 = CYLINDRICAL_SURFACE ( 'NONE', #172, 1.499999999999992673 ) ;
#43 = CARTESIAN_POINT ( 'NONE',  ( 3.142333204958820651E-14, -3.894457315308068594E-15, 9.000000000000001776 ) ) ;
#44 = ADVANCED_FACE ( 'NONE', ( #86, #163 ), #197, .T. ) ;
#45 = CARTESIAN_POINT ( 'NONE',  ( 1.906192921252225361E-15, -6.686024735685296298E-17, 0.5459553513993068430 ) ) ;
#46 = LOCAL_TIME ( 13, 35, 47.00000000000000000, #29 ) ;
#47 = DATE_TIME_ROLE ( 'creation_date' ) ;
#48 = VERTEX_POINT ( 'NONE', #210 ) ;
#49 = CC_DESIGN_PERSON_AND_ORGANIZATION_ASSIGNMENT ( #123, #218, ( #88 ) ) ;
#50 = PERSON_AND_ORGANIZATION ( #141, #159 ) ;
#51 = MANIFOLD_SOLID_BREP ( 'Corps-Déplacer/Copier1[2]', #94 ) ;
#52 = CIRCLE ( 'NONE', #136, 1.134074173710936106 ) ;
#53 = VERTEX_POINT ( 'NONE', #27 ) ;
#54 = CC_DESIGN_DATE_AND_TIME_ASSIGNMENT ( #85, #66, ( #88 ) ) ;
#55 = ORIENTED_EDGE ( 'NONE', *, *, #174, .F. ) ;
#56 = AXIS2_PLACEMENT_3D ( 'NONE', #45, #129, #115 ) ;
#57 = ORIENTED_EDGE ( 'NONE', *, *, #124, .F. ) ;
#58 = MANIFOLD_SOLID_BREP ( 'Corps-Déplacer/Copier1[1]', #1 ) ;
#59 = ADVANCED_FACE ( 'NONE', ( #229, #154 ), #22, .T. ) ;
#60 = COORDINATED_UNIVERSAL_TIME_OFFSET ( 1, 0, .AHEAD. ) ;
#61 = EDGE_LOOP ( 'NONE', ( #181 ) ) ;
#62 = CC_DESIGN_SECURITY_CLASSIFICATION ( #88, ( #98 ) ) ;
#63 = DATE_AND_TIME ( #183, #185 ) ;
#64 = ORIENTED_EDGE ( 'NONE', *, *, #193, .T. ) ;
#65 = AXIS2_PLACEMENT_3D ( 'NONE', #23, #19, #150 ) ;
#66 = DATE_TIME_ROLE ( 'classification_date' ) ;
#67 = DIRECTION ( 'NONE',  ( -3.491481338843133355E-15, 1.224646799147353207E-16, -1.000000000000000000 ) ) ;
#68 = SECURITY_CLASSIFICATION_LEVEL ( 'unclassified' ) ;
#69 = PRODUCT_RELATED_PRODUCT_CATEGORY ( 'detail', '', ( #8 ) ) ;
#70 = PERSON_AND_ORGANIZATION ( #141, #159 ) ;
#71 = DIRECTION ( 'NONE',  ( 4.275831445896958607E-31, 1.000000000000000000, 1.224646799147353207E-16 ) ) ;
#72 = AXIS2_PLACEMENT_3D ( 'NONE', #200, #240, #187 ) ;
#73 = CARTESIAN_POINT ( 'NONE',  ( 1.745740669421566678E-13, 8.248678804640089577E-33, 50.00000000000000000 ) ) ;
#74 = ADVANCED_FACE ( 'NONE', ( #40, #207 ), #132, .F. ) ;
#75 = CYLINDRICAL_SURFACE ( 'NONE', #31, 1.100000000000002309 ) ;
#76 = DATE_AND_TIME ( #251, #186 ) ;
#77 = COORDINATED_UNIVERSAL_TIME_OFFSET ( 1, 0, .AHEAD. ) ;
#78 = CALENDAR_DATE ( 2021, 13, 10 ) ;
#79 = CIRCLE ( 'NONE', #226, 1.100000000000002309 ) ;
#80 =( NAMED_UNIT ( * ) PLANE_ANGLE_UNIT ( ) SI_UNIT ( $, .RADIAN. ) );
#81 = ADVANCED_FACE ( 'NONE', ( #227 ), #248, .F. ) ;
#82 = ORIENTED_EDGE ( 'NONE', *, *, #120, .F. ) ;
#83 = PRODUCT_DEFINITION_SHAPE ( 'NONE', 'NONE',  #33 ) ;
#84 = ORIENTED_EDGE ( 'NONE', *, *, #161, .F. ) ;
#85 = DATE_AND_TIME ( #242, #230 ) ;
#86 = FACE_OUTER_BOUND ( 'NONE', #15, .T. ) ;
#87 = DIRECTION ( 'NONE',  ( -3.491481338843133355E-15, 4.327174794786742882E-16, -1.000000000000000000 ) ) ;
#88 = SECURITY_CLASSIFICATION ( '', '', #68 ) ;
#89 = EDGE_CURVE ( 'NONE', #194, #194, #199, .T. ) ;
#90 = DIRECTION ( 'NONE',  ( 0.0000000000000000000, 1.000000000000000000, 0.0000000000000000000 ) ) ;
#91 = APPROVAL_STATUS ( 'not_yet_approved' ) ;
#92 = DIRECTION ( 'NONE',  ( 0.0000000000000000000, -1.000000000000000000, 0.0000000000000000000 ) ) ;
#93 = DIRECTION ( 'NONE',  ( 0.0000000000000000000, -1.000000000000000000, 0.0000000000000000000 ) ) ;
#94 = CLOSED_SHELL ( 'NONE', ( #137, #228, #12 ) ) ;
#95 = FACE_OUTER_BOUND ( 'NONE', #147, .T. ) ;
#96 = CARTESIAN_POINT ( 'NONE',  ( 0.0000000000000000000, 0.0000000000000000000, 0.0000000000000000000 ) ) ;
#97 = CARTESIAN_POINT ( 'NONE',  ( 1.731774744066194144E-13, 1.499999999999989120, 49.60000000000000142 ) ) ;
#98 = PRODUCT_DEFINITION_FORMATION_WITH_SPECIFIED_SOURCE ( 'ANY', '', #8, .NOT_KNOWN. ) ;
#99 = PERSON_AND_ORGANIZATION ( #141, #159 ) ;
#100 = DIRECTION ( 'NONE',  ( -3.491481338843133355E-15, 4.327174794786742882E-16, -1.000000000000000000 ) ) ;
#101 = APPROVAL_PERSON_ORGANIZATION ( #50, #145, #212 ) ;
#102 = DIRECTION ( 'NONE',  ( 0.0000000000000000000, 1.000000000000000000, 0.0000000000000000000 ) ) ;
#103 = ADVANCED_FACE ( 'NONE', ( #246 ), #206, .F. ) ;
#104 = EDGE_LOOP ( 'NONE', ( #160 ) ) ;
#105 = APPROVAL_DATE_TIME ( #18, #145 ) ;
#106 = ORIENTED_EDGE ( 'NONE', *, *, #6, .F. ) ;
#107 = PERSON_AND_ORGANIZATION_ROLE ( 'design_supplier' ) ;
#108 = EDGE_LOOP ( 'NONE', ( #57 ) ) ;
#109 = DIRECTION ( 'NONE',  ( -3.491481338843133355E-15, 1.224646799147353207E-16, -1.000000000000000000 ) ) ;
#110 = CC_DESIGN_PERSON_AND_ORGANIZATION_ASSIGNMENT ( #176, #139, ( #8 ) ) ;
#111 = ADVANCED_BREP_SHAPE_REPRESENTATION ( '43302', ( #58, #51, #168 ), #24 ) ;
#112 = DIRECTION ( 'NONE',  ( -3.491481338843133355E-15, 4.327174794786742882E-16, -1.000000000000000000 ) ) ;
#113 = APPROVAL_PERSON_ORGANIZATION ( #99, #17, #215 ) ;
#114 = SHAPE_DEFINITION_REPRESENTATION ( #83, #111 ) ;
#115 = DIRECTION ( 'NONE',  ( -5.135813185032666309E-31, -1.000000000000000000, -1.445602896647349763E-16 ) ) ;
#116 = DIRECTION ( 'NONE',  ( 4.275831445896958607E-31, 1.000000000000000000, 1.224646799147353207E-16 ) ) ;
#117 = DIRECTION ( 'NONE',  ( 0.0000000000000000000, 1.000000000000000000, 0.0000000000000000000 ) ) ;
#118 = DIRECTION ( 'NONE',  ( -3.491481338843133355E-15, 1.224646799147353207E-16, -1.000000000000000000 ) ) ;
#119 = CARTESIAN_POINT ( 'NONE',  ( 3.142333204958820651E-14, -1.100000000000006084, 9.000000000000001776 ) ) ;
#120 = EDGE_CURVE ( 'NONE', #177, #177, #37, .T. ) ;
#121 = EDGE_LOOP ( 'NONE', ( #241 ) ) ;
#122 = ORIENTED_EDGE ( 'NONE', *, *, #222, .T. ) ;
#123 = PERSON_AND_ORGANIZATION ( #141, #159 ) ;
#124 = EDGE_CURVE ( 'NONE', #214, #214, #52, .T. ) ;
#125 = CONICAL_SURFACE ( 'NONE', #128, 2.000000000000000000, 0.2617993877991502960 ) ;
#126 = FACE_OUTER_BOUND ( 'NONE', #140, .T. ) ;
#127 = DIRECTION ( 'NONE',  ( -3.491481338843133355E-15, 1.224646799147353207E-16, -1.000000000000000000 ) ) ;
#128 = AXIS2_PLACEMENT_3D ( 'NONE', #189, #263, #93 ) ;
#129 = DIRECTION ( 'NONE',  ( 3.491481338843133355E-15, -1.224646799147353207E-16, 1.000000000000000000 ) ) ;
#130 = CARTESIAN_POINT ( 'NONE',  ( 4.538925740496072731E-14, -5.637851296924623057E-15, 12.99999999999999822 ) ) ;
#131 = FACE_BOUND ( 'NONE', #108, .T. ) ;
#132 = TOROIDAL_SURFACE ( 'NONE', #20, 2.100000000000004086, 0.9999999999999997780 ) ;
#133 = VERTEX_POINT ( 'NONE', #171 ) ;
#134 = ADVANCED_FACE ( 'NONE', ( #95, #151 ), #42, .T. ) ;
#135 = APPROVAL_STATUS ( 'not_yet_approved' ) ;
#136 = AXIS2_PLACEMENT_3D ( 'NONE', #21, #39, #90 ) ;
#137 = ADVANCED_FACE ( 'NONE', ( #224 ), #255, .T. ) ;
#138 = MECHANICAL_CONTEXT ( 'NONE', #26, 'mechanical' ) ;
#139 = PERSON_AND_ORGANIZATION_ROLE ( 'design_owner' ) ;
#140 = EDGE_LOOP ( 'NONE', ( #64 ) ) ;
#141 = PERSON ( 'UNSPECIFIED', 'UNSPECIFIED', 'UNSPECIFIED', ('UNSPECIFIED'), ('UNSPECIFIED'), ('UNSPECIFIED') ) ;
#142 = ORIENTED_EDGE ( 'NONE', *, *, #120, .T. ) ;
#143 = EDGE_LOOP ( 'NONE', ( #142 ) ) ;
#144 = PERSON_AND_ORGANIZATION ( #141, #159 ) ;
#145 = APPROVAL ( #135, 'UNSPECIFIED' ) ;
#146 = AXIS2_PLACEMENT_3D ( 'NONE', #38, #109, #102 ) ;
#147 = EDGE_LOOP ( 'NONE', ( #16 ) ) ;
#148 = PERSON_AND_ORGANIZATION_ROLE ( 'creator' ) ;
#149 = CARTESIAN_POINT ( 'NONE',  ( 4.538925740496073362E-14, -5.625327233222765747E-15, 13.00000000000000000 ) ) ;
#150 = DIRECTION ( 'NONE',  ( -3.501690807976785135E-31, -1.000000000000000000, -9.856383386231837873E-17 ) ) ;
#151 = FACE_OUTER_BOUND ( 'NONE', #143, .T. ) ;
#152 = AXIS2_PLACEMENT_3D ( 'NONE', #153, #112, #245 ) ;
#153 = CARTESIAN_POINT ( 'NONE',  ( 0.0000000000000000000, 0.0000000000000000000, 0.0000000000000000000 ) ) ;
#154 = FACE_OUTER_BOUND ( 'NONE', #217, .T. ) ;
#155 = ADVANCED_FACE ( 'NONE', ( #131, #165 ), #125, .T. ) ;
#156 = PERSON_AND_ORGANIZATION ( #141, #159 ) ;
#157 = CIRCLE ( 'NONE', #9, 1.100000000000004308 ) ;
#158 = CALENDAR_DATE ( 2021, 13, 10 ) ;
#159 = ORGANIZATION ( 'UNSPECIFIED', 'UNSPECIFIED', '' ) ;
#160 = ORIENTED_EDGE ( 'NONE', *, *, #174, .T. ) ;
#161 = EDGE_CURVE ( 'NONE', #133, #133, #28, .T. ) ;
#162 = ORIENTED_EDGE ( 'NONE', *, *, #89, .T. ) ;
#163 = FACE_BOUND ( 'NONE', #121, .T. ) ;
#164 = DIRECTION ( 'NONE',  ( -3.491481338843133355E-15, 1.224646799147353207E-16, -1.000000000000000000 ) ) ;
#165 = FACE_OUTER_BOUND ( 'NONE', #256, .T. ) ;
#166 = DIRECTION ( 'NONE',  ( 3.491481338843133355E-15, -1.224646799147353207E-16, 1.000000000000000000 ) ) ;
#167 = DIRECTION ( 'NONE',  ( 3.491481338843133355E-15, -4.327174794786742882E-16, 1.000000000000000000 ) ) ;
#168 = AXIS2_PLACEMENT_3D ( 'NONE', #96, #250, #4 ) ;
#169 = CARTESIAN_POINT ( 'NONE',  ( 5.106107394359551256E-14, -6.328265017640856134E-15, 14.62447282061489595 ) ) ;
#170 = APPLICATION_PROTOCOL_DEFINITION ( 'international standard', 'config_control_design', 1994, #26 ) ;
#171 = CARTESIAN_POINT ( 'NONE',  ( 5.106107394359551256E-14, -1.499999999999998890, 14.62447282061489595 ) ) ;
#172 = AXIS2_PLACEMENT_3D ( 'NONE', #204, #127, #116 ) ;
#173 = CARTESIAN_POINT ( 'NONE',  ( 1.397874808918311259E-15, -1.100000000000002309, 0.4003672576928286597 ) ) ;
#174 = EDGE_CURVE ( 'NONE', #30, #30, #157, .T. ) ;
#175 = DESIGN_CONTEXT ( 'detailed design', #225, 'design' ) ;
#176 = PERSON_AND_ORGANIZATION ( #141, #159 ) ;
#177 = VERTEX_POINT ( 'NONE', #97 ) ;
#178 = CC_DESIGN_APPROVAL ( #17, ( #33 ) ) ;
#179 = CARTESIAN_POINT ( 'NONE',  ( 3.142333204958820651E-14, 1.124819836996384311E-32, 9.000000000000001776 ) ) ;
#180 = AXIS2_PLACEMENT_3D ( 'NONE', #179, #32, #184 ) ;
#181 = ORIENTED_EDGE ( 'NONE', *, *, #193, .F. ) ;
#182 = CC_DESIGN_PERSON_AND_ORGANIZATION_ASSIGNMENT ( #156, #5, ( #33 ) ) ;
#183 = CALENDAR_DATE ( 2021, 13, 10 ) ;
#184 = DIRECTION ( 'NONE',  ( -4.275831445896958607E-31, -1.000000000000000000, -1.224646799147353207E-16 ) ) ;
#185 = LOCAL_TIME ( 13, 35, 47.00000000000000000, #258 ) ;
#186 = LOCAL_TIME ( 13, 35, 47.00000000000000000, #77 ) ;
#187 = DIRECTION ( 'NONE',  ( 0.0000000000000000000, 1.000000000000000000, 0.0000000000000000000 ) ) ;
#188 = CC_DESIGN_DATE_AND_TIME_ASSIGNMENT ( #198, #47, ( #33 ) ) ;
#189 = CARTESIAN_POINT ( 'NONE',  ( 5.757626681871618180E-14, -7.135726827009643933E-15, 16.49049822439935653 ) ) ;
#190 = DIRECTION ( 'NONE',  ( 1.545089900595233555E-30, 1.000000000000000000, 4.327174794786742882E-16 ) ) ;
#191 = CIRCLE ( 'NONE', #146, 1.099999999999994982 ) ;
#192 = CARTESIAN_POINT ( 'NONE',  ( 3.142333204958820651E-14, -3.894457315308068594E-15, 9.000000000000001776 ) ) ;
#193 = EDGE_CURVE ( 'NONE', #53, #53, #79, .T. ) ;
#194 = VERTEX_POINT ( 'NONE', #173 ) ;
#195 = CARTESIAN_POINT ( 'NONE',  ( 0.0000000000000000000, 0.0000000000000000000, 0.0000000000000000000 ) ) ;
#196 = APPLICATION_PROTOCOL_DEFINITION ( 'international standard', 'config_control_design', 1994, #225 ) ;
#197 = CONICAL_SURFACE ( 'NONE', #72, 1.099999999999994982, 0.7853981633974428389 ) ;
#198 = DATE_AND_TIME ( #158, #253 ) ;
#199 = CIRCLE ( 'NONE', #65, 1.100000000000002309 ) ;
#200 = CARTESIAN_POINT ( 'NONE',  ( 1.745740669421566678E-13, -6.123233995736766085E-15, 50.00000000000000000 ) ) ;
#201 = EDGE_LOOP ( 'NONE', ( #122 ) ) ;
#202 = AXIS2_PLACEMENT_3D ( 'NONE', #169, #167, #209 ) ;
#203 = EDGE_LOOP ( 'NONE', ( #106 ) ) ;
#204 = CARTESIAN_POINT ( 'NONE',  ( 0.0000000000000000000, 0.0000000000000000000, 0.0000000000000000000 ) ) ;
#205 = CC_DESIGN_PERSON_AND_ORGANIZATION_ASSIGNMENT ( #70, #148, ( #98 ) ) ;
#206 = PLANE ( 'NONE',  #234 ) ;
#207 = FACE_OUTER_BOUND ( 'NONE', #13, .T. ) ;
#208 = CARTESIAN_POINT ( 'NONE',  ( 1.731774744066194144E-13, -6.074248123770871868E-15, 49.60000000000000142 ) ) ;
#209 = DIRECTION ( 'NONE',  ( 0.0000000000000000000, -1.000000000000000000, 0.0000000000000000000 ) ) ;
#210 = CARTESIAN_POINT ( 'NONE',  ( 1.745740669421566678E-13, 1.099999999999988987, 50.00000000000000000 ) ) ;
#211 =( LENGTH_UNIT ( ) NAMED_UNIT ( * ) SI_UNIT ( .MILLI., .METRE. ) );
#212 = APPROVAL_ROLE ( '' ) ;
#213 = CIRCLE ( 'NONE', #219, 1.100000000000002309 ) ;
#214 = VERTEX_POINT ( 'NONE', #7 ) ;
#215 = APPROVAL_ROLE ( '' ) ;
#216 = FACE_OUTER_BOUND ( 'NONE', #61, .T. ) ;
#217 = EDGE_LOOP ( 'NONE', ( #220 ) ) ;
#218 = PERSON_AND_ORGANIZATION_ROLE ( 'classification_officer' ) ;
#219 = AXIS2_PLACEMENT_3D ( 'NONE', #192, #118, #247 ) ;
#220 = ORIENTED_EDGE ( 'NONE', *, *, #222, .F. ) ;
#221 = DIRECTION ( 'NONE',  ( -4.275831445896958607E-31, -1.000000000000000000, -1.224646799147353207E-16 ) ) ;
#222 = EDGE_CURVE ( 'NONE', #3, #3, #213, .T. ) ;
#223 = PERSON_AND_ORGANIZATION ( #141, #159 ) ;
#224 = FACE_OUTER_BOUND ( 'NONE', #236, .T. ) ;
#225 = APPLICATION_CONTEXT ( 'configuration controlled 3d designs of mechanical parts and assemblies' ) ;
#226 = AXIS2_PLACEMENT_3D ( 'NONE', #43, #262, #92 ) ;
#227 = FACE_OUTER_BOUND ( 'NONE', #201, .T. ) ;
#228 = ADVANCED_FACE ( 'NONE', ( #126, #2 ), #75, .T. ) ;
#229 = FACE_OUTER_BOUND ( 'NONE', #104, .T. ) ;
#230 = LOCAL_TIME ( 13, 35, 47.00000000000000000, #60 ) ;
#231 = COORDINATED_UNIVERSAL_TIME_OFFSET ( 1, 0, .AHEAD. ) ;
#232 = APPROVAL_PERSON_ORGANIZATION ( #223, #254, #244 ) ;
#233 = APPROVAL_DATE_TIME ( #76, #17 ) ;
#234 = AXIS2_PLACEMENT_3D ( 'NONE', #73, #164, #71 ) ;
#235 =( NAMED_UNIT ( * ) SI_UNIT ( $, .STERADIAN. ) SOLID_ANGLE_UNIT ( ) );
#236 = EDGE_LOOP ( 'NONE', ( #162 ) ) ;
#237 = CC_DESIGN_APPROVAL ( #254, ( #88 ) ) ;
#238 = EDGE_LOOP ( 'NONE', ( #55 ) ) ;
#239 = CC_DESIGN_APPROVAL ( #145, ( #98 ) ) ;
#240 = DIRECTION ( 'NONE',  ( -3.491481338843133355E-15, 1.224646799147353207E-16, -1.000000000000000000 ) ) ;
#241 = ORIENTED_EDGE ( 'NONE', *, *, #6, .T. ) ;
#242 = CALENDAR_DATE ( 2021, 13, 10 ) ;
#243 = AXIS2_PLACEMENT_3D ( 'NONE', #259, #166, #221 ) ;
#244 = APPROVAL_ROLE ( '' ) ;
#245 = DIRECTION ( 'NONE',  ( 1.510825004591027679E-30, 1.000000000000000000, 4.327174794786742389E-16 ) ) ;
#246 = FACE_OUTER_BOUND ( 'NONE', #203, .T. ) ;
#247 = DIRECTION ( 'NONE',  ( 0.0000000000000000000, -1.000000000000000000, 0.0000000000000000000 ) ) ;
#248 = PLANE ( 'NONE',  #243 ) ;
#249 = APPROVAL_STATUS ( 'not_yet_approved' ) ;
#250 = DIRECTION ( 'NONE',  ( 0.0000000000000000000, 0.0000000000000000000, 1.000000000000000000 ) ) ;
#251 = CALENDAR_DATE ( 2021, 13, 10 ) ;
#252 = CARTESIAN_POINT ( 'NONE',  ( 4.538925740496073362E-14, 1.099999999999998757, 13.00000000000000000 ) ) ;
#253 = LOCAL_TIME ( 13, 35, 47.00000000000000000, #231 ) ;
#254 = APPROVAL ( #91, 'UNSPECIFIED' ) ;
#255 = CONICAL_SURFACE ( 'NONE', #56, 1.499999999999989120, 1.221730476396026388 ) ;
#256 = EDGE_LOOP ( 'NONE', ( #84 ) ) ;
#257 = EDGE_LOOP ( 'NONE', ( #10 ) ) ;
#258 = COORDINATED_UNIVERSAL_TIME_OFFSET ( 1, 0, .AHEAD. ) ;
#259 = CARTESIAN_POINT ( 'NONE',  ( 3.142333204958820651E-14, 1.124819836996384311E-32, 9.000000000000001776 ) ) ;
#260 = DIRECTION ( 'NONE',  ( 0.0000000000000000000, 1.000000000000000000, 0.0000000000000000000 ) ) ;
#261 = CC_DESIGN_PERSON_AND_ORGANIZATION_ASSIGNMENT ( #144, #107, ( #98 ) ) ;
#262 = DIRECTION ( 'NONE',  ( -3.491481338843133355E-15, 1.224646799147353207E-16, -1.000000000000000000 ) ) ;
#263 = DIRECTION ( 'NONE',  ( 3.491481338843133355E-15, -4.327174794786742882E-16, 1.000000000000000000 ) ) ;
ENDSEC;
END-ISO-10303-21;
