ISO-10303-21;
HEADER;
FILE_DESCRIPTION (( 'STEP AP203' ),
    '1' );
FILE_NAME ('43301.step',
    '2021-10-13T11:35:46',
    ( '' ),
    ( '' ),
    'SwSTEP 2.0',
    'SolidWorks 2019',
    '' );
FILE_SCHEMA (( 'CONFIG_CONTROL_DESIGN' ));
ENDSEC;

DATA;
#1 = CIRCLE ( 'NONE', #176, 1.050000000000002265 ) ;
#2 = CALENDAR_DATE ( 2021, 13, 10 ) ;
#3 = DIRECTION ( 'NONE',  ( 0.0000000000000000000, -1.000000000000000000, 0.0000000000000000000 ) ) ;
#4 = APPROVAL_PERSON_ORGANIZATION ( #158, #62, #11 ) ;
#5 = FACE_OUTER_BOUND ( 'NONE', #122, .T. ) ;
#6 = FACE_OUTER_BOUND ( 'NONE', #182, .T. ) ;
#7 = VERTEX_POINT ( 'NONE', #251 ) ;
#8 = ADVANCED_FACE ( 'NONE', ( #78, #102 ), #61, .T. ) ;
#9 = CC_DESIGN_APPROVAL ( #112, ( #72 ) ) ;
#10 = CARTESIAN_POINT ( 'NONE',  ( 1.745740669421566678E-13, -6.123233995736766085E-15, 50.00000000000000000 ) ) ;
#11 = APPROVAL_ROLE ( '' ) ;
#12 = APPROVAL_DATE_TIME ( #33, #188 ) ;
#13 = APPROVAL_STATUS ( 'not_yet_approved' ) ;
#14 = PERSON_AND_ORGANIZATION ( #77, #121 ) ;
#15 = EDGE_CURVE ( 'NONE', #7, #7, #195, .T. ) ;
#16 = ORIENTED_EDGE ( 'NONE', *, *, #200, .T. ) ;
#17 = CARTESIAN_POINT ( 'NONE',  ( 0.0000000000000000000, 0.0000000000000000000, 0.0000000000000000000 ) ) ;
#18 = DIRECTION ( 'NONE',  ( 1.510825004591027855E-30, 1.000000000000000000, 4.327174794786743868E-16 ) ) ;
#19 = EDGE_CURVE ( 'NONE', #91, #91, #55, .T. ) ;
#20 = DIRECTION ( 'NONE',  ( 0.0000000000000000000, -1.000000000000000000, 0.0000000000000000000 ) ) ;
#21 = AXIS2_PLACEMENT_3D ( 'NONE', #212, #192, #53 ) ;
#22 = APPROVAL_DATE_TIME ( #141, #112 ) ;
#23 = DIRECTION ( 'NONE',  ( 0.0000000000000000000, 1.000000000000000000, 0.0000000000000000000 ) ) ;
#24 = CARTESIAN_POINT ( 'NONE',  ( 1.745740669421566678E-13, 1.099999999999988987, 50.00000000000000000 ) ) ;
#25 = EDGE_CURVE ( 'NONE', #85, #85, #44, .T. ) ;
#26 = VERTEX_POINT ( 'NONE', #67 ) ;
#27 = AXIS2_PLACEMENT_3D ( 'NONE', #162, #230, #244 ) ;
#28 = FACE_OUTER_BOUND ( 'NONE', #204, .T. ) ;
#29 = DIRECTION ( 'NONE',  ( 0.0000000000000000000, -1.000000000000000000, 0.0000000000000000000 ) ) ;
#30 = CC_DESIGN_PERSON_AND_ORGANIZATION_ASSIGNMENT ( #256, #113, ( #38 ) ) ;
#31 = DIRECTION ( 'NONE',  ( -3.491481338843133355E-15, 1.224646799147353207E-16, -1.000000000000000000 ) ) ;
#32 = CIRCLE ( 'NONE', #215, 1.050000000000002265 ) ;
#33 = DATE_AND_TIME ( #216, #221 ) ;
#34 = DIRECTION ( 'NONE',  ( 1.000000000000000000, 0.0000000000000000000, 0.0000000000000000000 ) ) ;
#35 = APPROVAL_PERSON_ORGANIZATION ( #135, #188, #197 ) ;
#36 = DATE_TIME_ROLE ( 'classification_date' ) ;
#37 = PERSON_AND_ORGANIZATION_ROLE ( 'creator' ) ;
#38 = PRODUCT ( '43301', '43301', '', ( #180 ) ) ;
#39 = EDGE_LOOP ( 'NONE', ( #92 ) ) ;
#40 = ORIENTED_EDGE ( 'NONE', *, *, #109, .F. ) ;
#41 = PRODUCT_DEFINITION_FORMATION_WITH_SPECIFIED_SOURCE ( 'ANY', '', #38, .NOT_KNOWN. ) ;
#42 = DIRECTION ( 'NONE',  ( -3.491481338843133355E-15, 1.224646799147353207E-16, -1.000000000000000000 ) ) ;
#43 = CARTESIAN_POINT ( 'NONE',  ( 4.538925740496072731E-14, -5.637851296924623057E-15, 12.99999999999999822 ) ) ;
#44 = CIRCLE ( 'NONE', #27, 1.050000000000002265 ) ;
#45 = DIRECTION ( 'NONE',  ( 0.0000000000000000000, 1.000000000000000000, 0.0000000000000000000 ) ) ;
#46 = ADVANCED_FACE ( 'NONE', ( #245, #186 ), #190, .F. ) ;
#47 = PLANE ( 'NONE',  #138 ) ;
#48 = EDGE_LOOP ( 'NONE', ( #262 ) ) ;
#49 = DIRECTION ( 'NONE',  ( -3.491481338843133355E-15, 4.327174794786742882E-16, -1.000000000000000000 ) ) ;
#50 = AXIS2_PLACEMENT_3D ( 'NONE', #103, #144, #23 ) ;
#51 = DIRECTION ( 'NONE',  ( 4.275831445896958607E-31, 1.000000000000000000, 1.224646799147353207E-16 ) ) ;
#52 = PRODUCT_DEFINITION ( 'UNKNOWN', '', #41, #243 ) ;
#53 = DIRECTION ( 'NONE',  ( -5.135813185032666309E-31, -1.000000000000000000, -1.445602896647349763E-16 ) ) ;
#54 = CALENDAR_DATE ( 2021, 13, 10 ) ;
#55 = CIRCLE ( 'NONE', #82, 1.099999999999994982 ) ;
#56 = PERSON_AND_ORGANIZATION_ROLE ( 'creator' ) ;
#57 = DATE_AND_TIME ( #241, #226 ) ;
#58 = ADVANCED_FACE ( 'NONE', ( #143, #228 ), #134, .T. ) ;
#59 = SHAPE_DEFINITION_REPRESENTATION ( #222, #237 ) ;
#60 = ORIENTED_EDGE ( 'NONE', *, *, #25, .F. ) ;
#61 = CYLINDRICAL_SURFACE ( 'NONE', #185, 1.050000000000002265 ) ;
#62 = APPROVAL ( #219, 'UNSPECIFIED' ) ;
#63 = DIRECTION ( 'NONE',  ( 1.545651620201859970E-30, 1.000000000000000000, 4.327174794786742882E-16 ) ) ;
#64 = DIRECTION ( 'NONE',  ( 0.0000000000000000000, 1.000000000000000000, 0.0000000000000000000 ) ) ;
#65 = PRODUCT_RELATED_PRODUCT_CATEGORY ( 'detail', '', ( #38 ) ) ;
#66 = CARTESIAN_POINT ( 'NONE',  ( 4.629291927107338469E-14, 1.084074173710930067, 13.25881904510251985 ) ) ;
#67 = CARTESIAN_POINT ( 'NONE',  ( 1.731774744066194144E-13, 1.499999999999989120, 49.60000000000000142 ) ) ;
#68 = CONICAL_SURFACE ( 'NONE', #21, 1.499999999999989120, 1.221730476396026388 ) ;
#69 = DIRECTION ( 'NONE',  ( -4.275831445896958607E-31, -1.000000000000000000, -1.224646799147353207E-16 ) ) ;
#70 = APPLICATION_PROTOCOL_DEFINITION ( 'international standard', 'config_control_design', 1994, #187 ) ;
#71 = VERTEX_POINT ( 'NONE', #238 ) ;
#72 = SECURITY_CLASSIFICATION ( '', '', #240 ) ;
#73 = PERSON_AND_ORGANIZATION_ROLE ( 'design_supplier' ) ;
#74 = COORDINATED_UNIVERSAL_TIME_OFFSET ( 1, 0, .AHEAD. ) ;
#75 = EDGE_CURVE ( 'NONE', #250, #250, #167, .T. ) ;
#76 = CARTESIAN_POINT ( 'NONE',  ( 0.0000000000000000000, 0.0000000000000000000, 0.0000000000000000000 ) ) ;
#77 = PERSON ( 'UNSPECIFIED', 'UNSPECIFIED', 'UNSPECIFIED', ('UNSPECIFIED'), ('UNSPECIFIED'), ('UNSPECIFIED') ) ;
#78 = FACE_OUTER_BOUND ( 'NONE', #257, .T. ) ;
#79 = DIRECTION ( 'NONE',  ( -3.491481338843133355E-15, 4.327174794786742882E-16, -1.000000000000000000 ) ) ;
#80 = ADVANCED_FACE ( 'NONE', ( #6 ), #47, .F. ) ;
#81 = CARTESIAN_POINT ( 'NONE',  ( 5.822778610622823925E-14, -7.216473007946519873E-15, 16.67710076477780134 ) ) ;
#82 = AXIS2_PLACEMENT_3D ( 'NONE', #126, #42, #205 ) ;
#83 = ORIENTED_EDGE ( 'NONE', *, *, #75, .T. ) ;
#84 = EDGE_LOOP ( 'NONE', ( #159 ) ) ;
#85 = VERTEX_POINT ( 'NONE', #171 ) ;
#86 = CIRCLE ( 'NONE', #239, 1.499999999999992673 ) ;
#87 = FACE_OUTER_BOUND ( 'NONE', #206, .T. ) ;
#88 = ORIENTED_EDGE ( 'NONE', *, *, #220, .T. ) ;
#89 = CC_DESIGN_PERSON_AND_ORGANIZATION_ASSIGNMENT ( #153, #56, ( #52 ) ) ;
#90 = CYLINDRICAL_SURFACE ( 'NONE', #234, 1.050000000000002265 ) ;
#91 = VERTEX_POINT ( 'NONE', #24 ) ;
#92 = ORIENTED_EDGE ( 'NONE', *, *, #15, .T. ) ;
#93 = APPROVAL_PERSON_ORGANIZATION ( #14, #112, #259 ) ;
#94 = CARTESIAN_POINT ( 'NONE',  ( 3.142333204958820651E-14, 1.124819836996384311E-32, 9.000000000000001776 ) ) ;
#95 = PERSON_AND_ORGANIZATION ( #77, #121 ) ;
#96 = CLOSED_SHELL ( 'NONE', ( #175, #8, #101 ) ) ;
#97 = APPLICATION_PROTOCOL_DEFINITION ( 'international standard', 'config_control_design', 1994, #165 ) ;
#98 = DIRECTION ( 'NONE',  ( 0.0000000000000000000, 0.0000000000000000000, 1.000000000000000000 ) ) ;
#99 =( GEOMETRIC_REPRESENTATION_CONTEXT ( 3 ) GLOBAL_UNCERTAINTY_ASSIGNED_CONTEXT ( ( #133 ) ) GLOBAL_UNIT_ASSIGNED_CONTEXT ( ( #214, #152, #174 ) ) REPRESENTATION_CONTEXT ( 'NONE', 'WORKASPACE' ) );
#100 = ORIENTED_EDGE ( 'NONE', *, *, #25, .T. ) ;
#101 = ADVANCED_FACE ( 'NONE', ( #105 ), #254, .T. ) ;
#102 = FACE_OUTER_BOUND ( 'NONE', #248, .T. ) ;
#103 = CARTESIAN_POINT ( 'NONE',  ( 4.629291927107338469E-14, -5.737322758060605391E-15, 13.25881904510251985 ) ) ;
#104 = EDGE_LOOP ( 'NONE', ( #149 ) ) ;
#105 = FACE_OUTER_BOUND ( 'NONE', #249, .T. ) ;
#106 = DIRECTION ( 'NONE',  ( 3.491481338843133355E-15, -1.224646799147353207E-16, 1.000000000000000000 ) ) ;
#107 = CC_DESIGN_SECURITY_CLASSIFICATION ( #72, ( #41 ) ) ;
#108 = FACE_OUTER_BOUND ( 'NONE', #48, .T. ) ;
#109 = EDGE_CURVE ( 'NONE', #147, #147, #1, .T. ) ;
#110 = DIRECTION ( 'NONE',  ( 0.0000000000000000000, 1.000000000000000000, 0.0000000000000000000 ) ) ;
#111 = PLANE ( 'NONE',  #130 ) ;
#112 = APPROVAL ( #139, 'UNSPECIFIED' ) ;
#113 = PERSON_AND_ORGANIZATION_ROLE ( 'design_owner' ) ;
#114 = ORIENTED_EDGE ( 'NONE', *, *, #247, .F. ) ;
#115 = APPROVAL_DATE_TIME ( #173, #62 ) ;
#116 = COORDINATED_UNIVERSAL_TIME_OFFSET ( 1, 0, .AHEAD. ) ;
#117 = LOCAL_TIME ( 13, 35, 46.00000000000000000, #198 ) ;
#118 = AXIS2_PLACEMENT_3D ( 'NONE', #10, #172, #45 ) ;
#119 = PERSON_AND_ORGANIZATION ( #77, #121 ) ;
#120 = ADVANCED_FACE ( 'NONE', ( #191, #150 ), #90, .T. ) ;
#121 = ORGANIZATION ( 'UNSPECIFIED', 'UNSPECIFIED', '' ) ;
#122 = EDGE_LOOP ( 'NONE', ( #16 ) ) ;
#123 = DIRECTION ( 'NONE',  ( 3.491481338843133355E-15, -4.327174794786742882E-16, 1.000000000000000000 ) ) ;
#124 = MANIFOLD_SOLID_BREP ( 'Corps-Déplacer/Copier1[2]', #96 ) ;
#125 = AXIS2_PLACEMENT_3D ( 'NONE', #211, #233, #146 ) ;
#126 = CARTESIAN_POINT ( 'NONE',  ( 1.745740669421566678E-13, -6.123233995736766085E-15, 50.00000000000000000 ) ) ;
#127 = DIRECTION ( 'NONE',  ( -3.491481338843133355E-15, 1.224646799147353207E-16, -1.000000000000000000 ) ) ;
#128 = CARTESIAN_POINT ( 'NONE',  ( 3.142333204958820651E-14, -1.050000000000006262, 9.000000000000001776 ) ) ;
#129 = FACE_BOUND ( 'NONE', #84, .T. ) ;
#130 = AXIS2_PLACEMENT_3D ( 'NONE', #194, #131, #236 ) ;
#131 = DIRECTION ( 'NONE',  ( -3.491481338843133355E-15, 1.224646799147353207E-16, -1.000000000000000000 ) ) ;
#132 = DIRECTION ( 'NONE',  ( 0.0000000000000000000, -1.000000000000000000, 0.0000000000000000000 ) ) ;
#133 = UNCERTAINTY_MEASURE_WITH_UNIT (LENGTH_MEASURE( 1.000000000000000082E-05 ), #214, 'distance_accuracy_value', 'NONE');
#134 = CONICAL_SURFACE ( 'NONE', #253, 2.000000000000000444, 0.2617993877991505181 ) ;
#135 = PERSON_AND_ORGANIZATION ( #77, #121 ) ;
#136 = CC_DESIGN_APPROVAL ( #188, ( #41 ) ) ;
#137 = CC_DESIGN_PERSON_AND_ORGANIZATION_ASSIGNMENT ( #218, #177, ( #72 ) ) ;
#138 = AXIS2_PLACEMENT_3D ( 'NONE', #94, #106, #69 ) ;
#139 = APPROVAL_STATUS ( 'not_yet_approved' ) ;
#140 = DIRECTION ( 'NONE',  ( -3.491481338843133355E-15, 4.327174794786742882E-16, -1.000000000000000000 ) ) ;
#141 = DATE_AND_TIME ( #2, #242 ) ;
#142 = ADVANCED_FACE ( 'NONE', ( #87, #5 ), #235, .T. ) ;
#143 = FACE_BOUND ( 'NONE', #161, .T. ) ;
#144 = DIRECTION ( 'NONE',  ( -3.491481338843133355E-15, 4.327174794786742882E-16, -1.000000000000000000 ) ) ;
#145 = CIRCLE ( 'NONE', #164, 1.499999999999995337 ) ;
#146 = DIRECTION ( 'NONE',  ( -4.275831445896958607E-31, -1.000000000000000000, -1.224646799147353207E-16 ) ) ;
#147 = VERTEX_POINT ( 'NONE', #128 ) ;
#148 = CARTESIAN_POINT ( 'NONE',  ( 1.731774744066194144E-13, -6.074248123770871868E-15, 49.60000000000000142 ) ) ;
#149 = ORIENTED_EDGE ( 'NONE', *, *, #15, .F. ) ;
#150 = FACE_OUTER_BOUND ( 'NONE', #202, .T. ) ;
#151 = ADVANCED_FACE ( 'NONE', ( #232 ), #111, .F. ) ;
#152 =( NAMED_UNIT ( * ) PLANE_ANGLE_UNIT ( ) SI_UNIT ( $, .RADIAN. ) );
#153 = PERSON_AND_ORGANIZATION ( #77, #121 ) ;
#154 = LOCAL_TIME ( 13, 35, 46.00000000000000000, #116 ) ;
#155 = ADVANCED_FACE ( 'NONE', ( #108, #129 ), #260, .T. ) ;
#156 = COORDINATED_UNIVERSAL_TIME_OFFSET ( 1, 0, .AHEAD. ) ;
#157 = ORIENTED_EDGE ( 'NONE', *, *, #75, .F. ) ;
#158 = PERSON_AND_ORGANIZATION ( #77, #121 ) ;
#159 = ORIENTED_EDGE ( 'NONE', *, *, #19, .T. ) ;
#160 = CC_DESIGN_PERSON_AND_ORGANIZATION_ASSIGNMENT ( #119, #37, ( #41 ) ) ;
#161 = EDGE_LOOP ( 'NONE', ( #157 ) ) ;
#162 = CARTESIAN_POINT ( 'NONE',  ( 1.334335044876570296E-15, -4.680217314979751043E-17, 0.3821687459795183872 ) ) ;
#163 = CC_DESIGN_DATE_AND_TIME_ASSIGNMENT ( #223, #258, ( #52 ) ) ;
#164 = AXIS2_PLACEMENT_3D ( 'NONE', #148, #255, #110 ) ;
#165 = APPLICATION_CONTEXT ( 'configuration controlled 3d designs of mechanical parts and assemblies' ) ;
#166 = ORIENTED_EDGE ( 'NONE', *, *, #19, .F. ) ;
#167 = CIRCLE ( 'NONE', #50, 1.084074173710935840 ) ;
#168 = CARTESIAN_POINT ( 'NONE',  ( 5.171259323110757633E-14, -6.409011198577733651E-15, 14.81107536099334077 ) ) ;
#169 = DIRECTION ( 'NONE',  ( 1.510825004591027855E-30, 1.000000000000000000, 4.327174794786743868E-16 ) ) ;
#170 = CC_DESIGN_DATE_AND_TIME_ASSIGNMENT ( #57, #36, ( #72 ) ) ;
#171 = CARTESIAN_POINT ( 'NONE',  ( 1.334335044876569901E-15, -1.050000000000002265, 0.3821687459795182762 ) ) ;
#172 = DIRECTION ( 'NONE',  ( -3.491481338843133355E-15, 1.224646799147353207E-16, -1.000000000000000000 ) ) ;
#173 = DATE_AND_TIME ( #54, #154 ) ;
#174 =( NAMED_UNIT ( * ) SI_UNIT ( $, .STERADIAN. ) SOLID_ANGLE_UNIT ( ) );
#175 = ADVANCED_FACE ( 'NONE', ( #28 ), #68, .T. ) ;
#176 = AXIS2_PLACEMENT_3D ( 'NONE', #252, #31, #29 ) ;
#177 = PERSON_AND_ORGANIZATION_ROLE ( 'classification_officer' ) ;
#178 = CALENDAR_DATE ( 2021, 13, 10 ) ;
#179 = CC_DESIGN_PERSON_AND_ORGANIZATION_ASSIGNMENT ( #95, #73, ( #41 ) ) ;
#180 = MECHANICAL_CONTEXT ( 'NONE', #165, 'mechanical' ) ;
#181 = AXIS2_PLACEMENT_3D ( 'NONE', #183, #263, #64 ) ;
#182 = EDGE_LOOP ( 'NONE', ( #208 ) ) ;
#183 = CARTESIAN_POINT ( 'NONE',  ( 4.538925740496073362E-14, -5.625327233222765747E-15, 13.00000000000000000 ) ) ;
#184 = ORIENTED_EDGE ( 'NONE', *, *, #247, .T. ) ;
#185 = AXIS2_PLACEMENT_3D ( 'NONE', #17, #79, #18 ) ;
#186 = FACE_OUTER_BOUND ( 'NONE', #225, .T. ) ;
#187 = APPLICATION_CONTEXT ( 'configuration controlled 3d designs of mechanical parts and assemblies' ) ;
#188 = APPROVAL ( #13, 'UNSPECIFIED' ) ;
#189 = DIRECTION ( 'NONE',  ( -3.491481338843133355E-15, 1.224646799147353207E-16, -1.000000000000000000 ) ) ;
#190 = TOROIDAL_SURFACE ( 'NONE', #231, 2.050000000000004707, 1.000000000000000444 ) ;
#191 = FACE_OUTER_BOUND ( 'NONE', #39, .T. ) ;
#192 = DIRECTION ( 'NONE',  ( 3.491481338843133355E-15, -1.224646799147353207E-16, 1.000000000000000000 ) ) ;
#193 = CARTESIAN_POINT ( 'NONE',  ( 3.142333204958820651E-14, -3.894457315308068594E-15, 9.000000000000001776 ) ) ;
#194 = CARTESIAN_POINT ( 'NONE',  ( 1.745740669421566678E-13, 8.248678804640089577E-33, 50.00000000000000000 ) ) ;
#195 = CIRCLE ( 'NONE', #181, 1.050000000000004263 ) ;
#196 = CARTESIAN_POINT ( 'NONE',  ( 5.171259323110757633E-14, -1.499999999999999112, 14.81107536099334077 ) ) ;
#197 = APPROVAL_ROLE ( '' ) ;
#198 = COORDINATED_UNIVERSAL_TIME_OFFSET ( 1, 0, .AHEAD. ) ;
#199 = CC_DESIGN_APPROVAL ( #62, ( #52 ) ) ;
#200 = EDGE_CURVE ( 'NONE', #26, #26, #145, .T. ) ;
#201 = VERTEX_POINT ( 'NONE', #196 ) ;
#202 = EDGE_LOOP ( 'NONE', ( #40 ) ) ;
#203 = CLOSED_SHELL ( 'NONE', ( #142, #155, #151, #120, #58, #46, #80 ) ) ;
#204 = EDGE_LOOP ( 'NONE', ( #100 ) ) ;
#205 = DIRECTION ( 'NONE',  ( 0.0000000000000000000, 1.000000000000000000, 0.0000000000000000000 ) ) ;
#206 = EDGE_LOOP ( 'NONE', ( #184 ) ) ;
#207 = AXIS2_PLACEMENT_3D ( 'NONE', #76, #98, #34 ) ;
#208 = ORIENTED_EDGE ( 'NONE', *, *, #109, .T. ) ;
#209 = DIRECTION ( 'NONE',  ( 3.491481338843133355E-15, -4.327174794786742882E-16, 1.000000000000000000 ) ) ;
#210 = CARTESIAN_POINT ( 'NONE',  ( 0.0000000000000000000, 0.0000000000000000000, 0.0000000000000000000 ) ) ;
#211 = CARTESIAN_POINT ( 'NONE',  ( 3.142333204958820651E-14, 1.124819836996384311E-32, 9.000000000000001776 ) ) ;
#212 = CARTESIAN_POINT ( 'NONE',  ( 1.906192921252225361E-15, -6.686024735685296298E-17, 0.5459553513993068430 ) ) ;
#213 = CARTESIAN_POINT ( 'NONE',  ( 0.0000000000000000000, 0.0000000000000000000, 0.0000000000000000000 ) ) ;
#214 =( LENGTH_UNIT ( ) NAMED_UNIT ( * ) SI_UNIT ( .MILLI., .METRE. ) );
#215 = AXIS2_PLACEMENT_3D ( 'NONE', #193, #127, #3 ) ;
#216 = CALENDAR_DATE ( 2021, 13, 10 ) ;
#217 = MANIFOLD_SOLID_BREP ( 'Corps-Déplacer/Copier1[1]', #203 ) ;
#218 = PERSON_AND_ORGANIZATION ( #77, #121 ) ;
#219 = APPROVAL_STATUS ( 'not_yet_approved' ) ;
#220 = EDGE_CURVE ( 'NONE', #71, #71, #32, .T. ) ;
#221 = LOCAL_TIME ( 13, 35, 46.00000000000000000, #156 ) ;
#222 = PRODUCT_DEFINITION_SHAPE ( 'NONE', 'NONE',  #52 ) ;
#223 = DATE_AND_TIME ( #178, #117 ) ;
#224 = EDGE_LOOP ( 'NONE', ( #114 ) ) ;
#225 = EDGE_LOOP ( 'NONE', ( #83 ) ) ;
#226 = LOCAL_TIME ( 13, 35, 46.00000000000000000, #74 ) ;
#227 = COORDINATED_UNIVERSAL_TIME_OFFSET ( 1, 0, .AHEAD. ) ;
#228 = FACE_OUTER_BOUND ( 'NONE', #224, .T. ) ;
#229 = EDGE_LOOP ( 'NONE', ( #166 ) ) ;
#230 = DIRECTION ( 'NONE',  ( -3.491481338843133355E-15, 1.224646799147353207E-16, -1.000000000000000000 ) ) ;
#231 = AXIS2_PLACEMENT_3D ( 'NONE', #43, #140, #63 ) ;
#232 = FACE_OUTER_BOUND ( 'NONE', #229, .T. ) ;
#233 = DIRECTION ( 'NONE',  ( 3.491481338843133355E-15, -1.224646799147353207E-16, 1.000000000000000000 ) ) ;
#234 = AXIS2_PLACEMENT_3D ( 'NONE', #213, #49, #169 ) ;
#235 = CYLINDRICAL_SURFACE ( 'NONE', #246, 1.499999999999992673 ) ;
#236 = DIRECTION ( 'NONE',  ( 4.275831445896958607E-31, 1.000000000000000000, 1.224646799147353207E-16 ) ) ;
#237 = ADVANCED_BREP_SHAPE_REPRESENTATION ( '43301', ( #217, #124, #207 ), #99 ) ;
#238 = CARTESIAN_POINT ( 'NONE',  ( 3.142333204958820651E-14, -1.050000000000006262, 9.000000000000001776 ) ) ;
#239 = AXIS2_PLACEMENT_3D ( 'NONE', #168, #209, #132 ) ;
#240 = SECURITY_CLASSIFICATION_LEVEL ( 'unclassified' ) ;
#241 = CALENDAR_DATE ( 2021, 13, 10 ) ;
#242 = LOCAL_TIME ( 13, 35, 46.00000000000000000, #227 ) ;
#243 = DESIGN_CONTEXT ( 'detailed design', #187, 'design' ) ;
#244 = DIRECTION ( 'NONE',  ( -3.668437989309012894E-31, -1.000000000000000000, -1.032573497605240129E-16 ) ) ;
#245 = FACE_OUTER_BOUND ( 'NONE', #104, .T. ) ;
#246 = AXIS2_PLACEMENT_3D ( 'NONE', #210, #189, #51 ) ;
#247 = EDGE_CURVE ( 'NONE', #201, #201, #86, .T. ) ;
#248 = EDGE_LOOP ( 'NONE', ( #60 ) ) ;
#249 = EDGE_LOOP ( 'NONE', ( #261 ) ) ;
#250 = VERTEX_POINT ( 'NONE', #66 ) ;
#251 = CARTESIAN_POINT ( 'NONE',  ( 4.538925740496073362E-14, 1.049999999999998712, 13.00000000000000000 ) ) ;
#252 = CARTESIAN_POINT ( 'NONE',  ( 3.142333204958820651E-14, -3.894457315308068594E-15, 9.000000000000001776 ) ) ;
#253 = AXIS2_PLACEMENT_3D ( 'NONE', #81, #123, #20 ) ;
#254 = PLANE ( 'NONE',  #125 ) ;
#255 = DIRECTION ( 'NONE',  ( -3.491481338843133355E-15, 1.224646799147353207E-16, -1.000000000000000000 ) ) ;
#256 = PERSON_AND_ORGANIZATION ( #77, #121 ) ;
#257 = EDGE_LOOP ( 'NONE', ( #88 ) ) ;
#258 = DATE_TIME_ROLE ( 'creation_date' ) ;
#259 = APPROVAL_ROLE ( '' ) ;
#260 = CONICAL_SURFACE ( 'NONE', #118, 1.099999999999994982, 0.7853981633974428389 ) ;
#261 = ORIENTED_EDGE ( 'NONE', *, *, #220, .F. ) ;
#262 = ORIENTED_EDGE ( 'NONE', *, *, #200, .F. ) ;
#263 = DIRECTION ( 'NONE',  ( -3.491481338843133355E-15, 4.327174794786742882E-16, -1.000000000000000000 ) ) ;
ENDSEC;
END-ISO-10303-21;
