ISO-10303-21;
HEADER;
FILE_DESCRIPTION (( 'STEP AP203' ),
    '1' );
FILE_NAME ('43300.step',
    '2021-10-13T11:35:45',
    ( '' ),
    ( '' ),
    'SwSTEP 2.0',
    'SolidWorks 2019',
    '' );
FILE_SCHEMA (( 'CONFIG_CONTROL_DESIGN' ));
ENDSEC;

DATA;
#1 = AXIS2_PLACEMENT_3D ( 'NONE', #3, #85, #24 ) ;
#2 = DIRECTION ( 'NONE',  ( 3.491481338843133355E-15, -4.327174794786742882E-16, 1.000000000000000000 ) ) ;
#3 = CARTESIAN_POINT ( 'NONE',  ( 3.142333204958820651E-14, -3.894457315308068594E-15, 9.000000000000001776 ) ) ;
#4 = AXIS2_PLACEMENT_3D ( 'NONE', #242, #59, #123 ) ;
#5 = DIRECTION ( 'NONE',  ( 0.0000000000000000000, -1.000000000000000000, 0.0000000000000000000 ) ) ;
#6 = CARTESIAN_POINT ( 'NONE',  ( 1.745740669421566678E-13, 1.099999999999988987, 50.00000000000000000 ) ) ;
#7 = PRODUCT_RELATED_PRODUCT_CATEGORY ( 'detail', '', ( #150 ) ) ;
#8 = CARTESIAN_POINT ( 'NONE',  ( 1.745740669421566678E-13, -6.123233995736766085E-15, 50.00000000000000000 ) ) ;
#9 = CIRCLE ( 'NONE', #219, 1.499999999999995337 ) ;
#10 = DIRECTION ( 'NONE',  ( -3.491481338843133355E-15, 1.224646799147353207E-16, -1.000000000000000000 ) ) ;
#11 = CALENDAR_DATE ( 2021, 13, 10 ) ;
#12 =( NAMED_UNIT ( * ) PLANE_ANGLE_UNIT ( ) SI_UNIT ( $, .RADIAN. ) );
#13 = PERSON_AND_ORGANIZATION ( #153, #122 ) ;
#14 = AXIS2_PLACEMENT_3D ( 'NONE', #44, #187, #125 ) ;
#15 = DATE_AND_TIME ( #37, #36 ) ;
#16 = CYLINDRICAL_SURFACE ( 'NONE', #135, 1.000000000000001998 ) ;
#17 = CIRCLE ( 'NONE', #73, 1.499999999999992673 ) ;
#18 = EDGE_LOOP ( 'NONE', ( #104 ) ) ;
#19 = ORIENTED_EDGE ( 'NONE', *, *, #137, .F. ) ;
#20 = CALENDAR_DATE ( 2021, 13, 10 ) ;
#21 = EDGE_LOOP ( 'NONE', ( #112 ) ) ;
#22 = AXIS2_PLACEMENT_3D ( 'NONE', #80, #164, #23 ) ;
#23 = DIRECTION ( 'NONE',  ( -3.851859888774463824E-31, -1.000000000000000000, -1.084202172485502215E-16 ) ) ;
#24 = DIRECTION ( 'NONE',  ( 0.0000000000000000000, -1.000000000000000000, 0.0000000000000000000 ) ) ;
#25 = PRODUCT_DEFINITION_SHAPE ( 'NONE', 'NONE',  #95 ) ;
#26 = CARTESIAN_POINT ( 'NONE',  ( 0.0000000000000000000, 0.0000000000000000000, 0.0000000000000000000 ) ) ;
#27 = AXIS2_PLACEMENT_3D ( 'NONE', #140, #245, #197 ) ;
#28 = DIRECTION ( 'NONE',  ( -3.491481338843133355E-15, 1.224646799147353207E-16, -1.000000000000000000 ) ) ;
#29 = APPROVAL ( #111, 'UNSPECIFIED' ) ;
#30 = CARTESIAN_POINT ( 'NONE',  ( 5.887930539374033458E-14, -7.297219188883403701E-15, 16.86370330515625682 ) ) ;
#31 = CARTESIAN_POINT ( 'NONE',  ( 3.142333204958820651E-14, -1.000000000000005773, 9.000000000000001776 ) ) ;
#32 = EDGE_CURVE ( 'NONE', #126, #126, #252, .T. ) ;
#33 = APPROVAL_ROLE ( '' ) ;
#34 = PERSON_AND_ORGANIZATION ( #153, #122 ) ;
#35 = COORDINATED_UNIVERSAL_TIME_OFFSET ( 1, 0, .AHEAD. ) ;
#36 = LOCAL_TIME ( 13, 35, 45.00000000000000000, #213 ) ;
#37 = CALENDAR_DATE ( 2021, 13, 10 ) ;
#38 = CARTESIAN_POINT ( 'NONE',  ( 1.745740669421566678E-13, -6.123233995736766085E-15, 50.00000000000000000 ) ) ;
#39 = CC_DESIGN_DATE_AND_TIME_ASSIGNMENT ( #15, #232, ( #95 ) ) ;
#40 = ORIENTED_EDGE ( 'NONE', *, *, #188, .T. ) ;
#41 = CYLINDRICAL_SURFACE ( 'NONE', #27, 1.000000000000001998 ) ;
#42 = FACE_OUTER_BOUND ( 'NONE', #217, .T. ) ;
#43 = LOCAL_TIME ( 13, 35, 45.00000000000000000, #237 ) ;
#44 = CARTESIAN_POINT ( 'NONE',  ( 1.906192921252225361E-15, -6.686024735685296298E-17, 0.5459553513993068430 ) ) ;
#45 = FACE_OUTER_BOUND ( 'NONE', #157, .T. ) ;
#46 = ADVANCED_FACE ( 'NONE', ( #42, #139 ), #41, .T. ) ;
#47 = DIRECTION ( 'NONE',  ( 0.0000000000000000000, 1.000000000000000000, 0.0000000000000000000 ) ) ;
#48 = CARTESIAN_POINT ( 'NONE',  ( 1.745740669421566678E-13, 8.248678804640089577E-33, 50.00000000000000000 ) ) ;
#49 = PLANE ( 'NONE',  #87 ) ;
#50 = DIRECTION ( 'NONE',  ( 0.0000000000000000000, 0.0000000000000000000, 1.000000000000000000 ) ) ;
#51 = CLOSED_SHELL ( 'NONE', ( #120, #77, #226 ) ) ;
#52 = CARTESIAN_POINT ( 'NONE',  ( 4.538925740496072731E-14, 0.9999999999999983347, 12.99999999999999822 ) ) ;
#53 = CALENDAR_DATE ( 2021, 13, 10 ) ;
#54 = APPROVAL ( #62, 'UNSPECIFIED' ) ;
#55 = COORDINATED_UNIVERSAL_TIME_OFFSET ( 1, 0, .AHEAD. ) ;
#56 = CONICAL_SURFACE ( 'NONE', #14, 1.499999999999989120, 1.221730476396026388 ) ;
#57 = COORDINATED_UNIVERSAL_TIME_OFFSET ( 1, 0, .AHEAD. ) ;
#58 = ORIENTED_EDGE ( 'NONE', *, *, #133, .T. ) ;
#59 = DIRECTION ( 'NONE',  ( -3.491481338843133355E-15, 4.327174794786742882E-16, -1.000000000000000000 ) ) ;
#60 = CONICAL_SURFACE ( 'NONE', #96, 2.000000000000000444, 0.2617993877991499629 ) ;
#61 = EDGE_LOOP ( 'NONE', ( #218 ) ) ;
#62 = APPROVAL_STATUS ( 'not_yet_approved' ) ;
#63 = DIRECTION ( 'NONE',  ( 1.510825004591027855E-30, 1.000000000000000000, 4.327174794786742882E-16 ) ) ;
#64 = EDGE_LOOP ( 'NONE', ( #160 ) ) ;
#65 = APPROVAL_PERSON_ORGANIZATION ( #97, #204, #33 ) ;
#66 = CARTESIAN_POINT ( 'NONE',  ( 1.731774744066194144E-13, -6.074248123770871868E-15, 49.60000000000000142 ) ) ;
#67 = CC_DESIGN_PERSON_AND_ORGANIZATION_ASSIGNMENT ( #118, #131, ( #255 ) ) ;
#68 = DIRECTION ( 'NONE',  ( -3.491481338843133355E-15, 4.327174794786742882E-16, -1.000000000000000000 ) ) ;
#69 = AXIS2_PLACEMENT_3D ( 'NONE', #48, #203, #144 ) ;
#70 = DIRECTION ( 'NONE',  ( 0.0000000000000000000, -1.000000000000000000, 0.0000000000000000000 ) ) ;
#71 = SECURITY_CLASSIFICATION_LEVEL ( 'unclassified' ) ;
#72 = MECHANICAL_CONTEXT ( 'NONE', #100, 'mechanical' ) ;
#73 = AXIS2_PLACEMENT_3D ( 'NONE', #202, #2, #101 ) ;
#74 = ADVANCED_FACE ( 'NONE', ( #220, #243 ), #257, .F. ) ;
#75 = APPLICATION_PROTOCOL_DEFINITION ( 'international standard', 'config_control_design', 1994, #100 ) ;
#76 =( NAMED_UNIT ( * ) SI_UNIT ( $, .STERADIAN. ) SOLID_ANGLE_UNIT ( ) );
#77 = ADVANCED_FACE ( 'NONE', ( #121, #199 ), #16, .T. ) ;
#78 = ORIENTED_EDGE ( 'NONE', *, *, #142, .F. ) ;
#79 = APPROVAL_DATE_TIME ( #81, #54 ) ;
#80 = CARTESIAN_POINT ( 'NONE',  ( 1.270795280834828543E-15, -4.457349823790237797E-17, 0.3639702342662078927 ) ) ;
#81 = DATE_AND_TIME ( #20, #248 ) ;
#82 = DIRECTION ( 'NONE',  ( -3.491481338843133355E-15, 1.224646799147353207E-16, -1.000000000000000000 ) ) ;
#83 = EDGE_LOOP ( 'NONE', ( #78 ) ) ;
#84 = APPLICATION_CONTEXT ( 'configuration controlled 3d designs of mechanical parts and assemblies' ) ;
#85 = DIRECTION ( 'NONE',  ( -3.491481338843133355E-15, 1.224646799147353207E-16, -1.000000000000000000 ) ) ;
#86 = CC_DESIGN_PERSON_AND_ORGANIZATION_ASSIGNMENT ( #117, #191, ( #95 ) ) ;
#87 = AXIS2_PLACEMENT_3D ( 'NONE', #168, #185, #253 ) ;
#88 = FACE_OUTER_BOUND ( 'NONE', #256, .T. ) ;
#89 = VERTEX_POINT ( 'NONE', #31 ) ;
#90 = DIRECTION ( 'NONE',  ( 0.0000000000000000000, 1.000000000000000000, 0.0000000000000000000 ) ) ;
#91 = EDGE_LOOP ( 'NONE', ( #40 ) ) ;
#92 = CYLINDRICAL_SURFACE ( 'NONE', #175, 1.499999999999992673 ) ;
#93 = VERTEX_POINT ( 'NONE', #52 ) ;
#94 = APPROVAL_ROLE ( '' ) ;
#95 = PRODUCT_DEFINITION ( 'UNKNOWN', '', #255, #152 ) ;
#96 = AXIS2_PLACEMENT_3D ( 'NONE', #30, #183, #5 ) ;
#97 = PERSON_AND_ORGANIZATION ( #153, #122 ) ;
#98 = EDGE_CURVE ( 'NONE', #186, #186, #17, .T. ) ;
#99 = APPROVAL_PERSON_ORGANIZATION ( #13, #54, #262 ) ;
#100 = APPLICATION_CONTEXT ( 'configuration controlled 3d designs of mechanical parts and assemblies' ) ;
#101 = DIRECTION ( 'NONE',  ( 0.0000000000000000000, -1.000000000000000000, 0.0000000000000000000 ) ) ;
#102 = CARTESIAN_POINT ( 'NONE',  ( 0.0000000000000000000, 0.0000000000000000000, 0.0000000000000000000 ) ) ;
#103 = ORIENTED_EDGE ( 'NONE', *, *, #177, .T. ) ;
#104 = ORIENTED_EDGE ( 'NONE', *, *, #32, .T. ) ;
#105 = FACE_OUTER_BOUND ( 'NONE', #141, .T. ) ;
#106 = CARTESIAN_POINT ( 'NONE',  ( 4.629291927107337206E-14, -5.737322758060603814E-15, 13.25881904510251630 ) ) ;
#107 = AXIS2_PLACEMENT_3D ( 'NONE', #106, #128, #90 ) ;
#108 = FACE_OUTER_BOUND ( 'NONE', #119, .T. ) ;
#109 = VERTEX_POINT ( 'NONE', #6 ) ;
#110 = DIRECTION ( 'NONE',  ( 0.0000000000000000000, 1.000000000000000000, 0.0000000000000000000 ) ) ;
#111 = APPROVAL_STATUS ( 'not_yet_approved' ) ;
#112 = ORIENTED_EDGE ( 'NONE', *, *, #32, .F. ) ;
#113 = ADVANCED_FACE ( 'NONE', ( #246, #263 ), #154, .T. ) ;
#114 = PERSON_AND_ORGANIZATION ( #153, #122 ) ;
#115 = DATE_AND_TIME ( #11, #211 ) ;
#116 = LOCAL_TIME ( 13, 35, 45.00000000000000000, #55 ) ;
#117 = PERSON_AND_ORGANIZATION ( #153, #122 ) ;
#118 = PERSON_AND_ORGANIZATION ( #153, #122 ) ;
#119 = EDGE_LOOP ( 'NONE', ( #19 ) ) ;
#120 = ADVANCED_FACE ( 'NONE', ( #205 ), #56, .T. ) ;
#121 = FACE_OUTER_BOUND ( 'NONE', #162, .T. ) ;
#122 = ORGANIZATION ( 'UNSPECIFIED', 'UNSPECIFIED', '' ) ;
#123 = DIRECTION ( 'NONE',  ( 1.546232063795373926E-30, 1.000000000000000000, 4.327174794786743375E-16 ) ) ;
#124 = PLANE ( 'NONE',  #69 ) ;
#125 = DIRECTION ( 'NONE',  ( -5.135813185032666309E-31, -1.000000000000000000, -1.445602896647349763E-16 ) ) ;
#126 = VERTEX_POINT ( 'NONE', #206 ) ;
#127 = AXIS2_PLACEMENT_3D ( 'NONE', #207, #68, #146 ) ;
#128 = DIRECTION ( 'NONE',  ( -3.491481338843133355E-15, 4.327174794786742882E-16, -1.000000000000000000 ) ) ;
#129 = MANIFOLD_SOLID_BREP ( 'Corps-Déplacer/Copier1[2]', #51 ) ;
#130 = VERTEX_POINT ( 'NONE', #251 ) ;
#131 = PERSON_AND_ORGANIZATION_ROLE ( 'creator' ) ;
#132 = CC_DESIGN_APPROVAL ( #54, ( #190 ) ) ;
#133 = EDGE_CURVE ( 'NONE', #109, #109, #194, .T. ) ;
#134 =( LENGTH_UNIT ( ) NAMED_UNIT ( * ) SI_UNIT ( .MILLI., .METRE. ) );
#135 = AXIS2_PLACEMENT_3D ( 'NONE', #102, #180, #63 ) ;
#136 = DATE_AND_TIME ( #53, #43 ) ;
#137 = EDGE_CURVE ( 'NONE', #89, #89, #143, .T. ) ;
#138 = AXIS2_PLACEMENT_3D ( 'NONE', #167, #249, #70 ) ;
#139 = FACE_OUTER_BOUND ( 'NONE', #61, .T. ) ;
#140 = CARTESIAN_POINT ( 'NONE',  ( 0.0000000000000000000, 0.0000000000000000000, 0.0000000000000000000 ) ) ;
#141 = EDGE_LOOP ( 'NONE', ( #178 ) ) ;
#142 = EDGE_CURVE ( 'NONE', #130, #130, #9, .T. ) ;
#143 = CIRCLE ( 'NONE', #138, 1.000000000000001998 ) ;
#144 = DIRECTION ( 'NONE',  ( 4.275831445896958607E-31, 1.000000000000000000, 1.224646799147353207E-16 ) ) ;
#145 = CARTESIAN_POINT ( 'NONE',  ( 3.142333204958820651E-14, 1.124819836996384311E-32, 9.000000000000001776 ) ) ;
#146 = DIRECTION ( 'NONE',  ( 0.0000000000000000000, 1.000000000000000000, 0.0000000000000000000 ) ) ;
#147 = DIRECTION ( 'NONE',  ( -3.491481338843133355E-15, 1.224646799147353207E-16, -1.000000000000000000 ) ) ;
#148 = AXIS2_PLACEMENT_3D ( 'NONE', #145, #250, #169 ) ;
#149 = PERSON_AND_ORGANIZATION ( #153, #122 ) ;
#150 = PRODUCT ( '43300', '43300', '', ( #72 ) ) ;
#151 = ADVANCED_FACE ( 'NONE', ( #88, #45 ), #92, .T. ) ;
#152 = DESIGN_CONTEXT ( 'detailed design', #84, 'design' ) ;
#153 = PERSON ( 'UNSPECIFIED', 'UNSPECIFIED', 'UNSPECIFIED', ('UNSPECIFIED'), ('UNSPECIFIED'), ('UNSPECIFIED') ) ;
#154 = CONICAL_SURFACE ( 'NONE', #163, 1.099999999999994982, 0.7853981633974428389 ) ;
#155 = DATE_AND_TIME ( #195, #116 ) ;
#156 = DIRECTION ( 'NONE',  ( 1.000000000000000000, 0.0000000000000000000, 0.0000000000000000000 ) ) ;
#157 = EDGE_LOOP ( 'NONE', ( #179 ) ) ;
#158 = PERSON_AND_ORGANIZATION_ROLE ( 'design_owner' ) ;
#159 = CC_DESIGN_APPROVAL ( #29, ( #95 ) ) ;
#160 = ORIENTED_EDGE ( 'NONE', *, *, #188, .F. ) ;
#161 = ORIENTED_EDGE ( 'NONE', *, *, #261, .F. ) ;
#162 = EDGE_LOOP ( 'NONE', ( #182 ) ) ;
#163 = AXIS2_PLACEMENT_3D ( 'NONE', #38, #82, #47 ) ;
#164 = DIRECTION ( 'NONE',  ( -3.491481338843133355E-15, 1.224646799147353207E-16, -1.000000000000000000 ) ) ;
#165 = EDGE_LOOP ( 'NONE', ( #58 ) ) ;
#166 = APPROVAL_PERSON_ORGANIZATION ( #114, #29, #94 ) ;
#167 = CARTESIAN_POINT ( 'NONE',  ( 3.142333204958820651E-14, -3.894457315308068594E-15, 9.000000000000001776 ) ) ;
#168 = CARTESIAN_POINT ( 'NONE',  ( 3.142333204958820651E-14, 1.124819836996384311E-32, 9.000000000000001776 ) ) ;
#169 = DIRECTION ( 'NONE',  ( -4.275831445896958607E-31, -1.000000000000000000, -1.224646799147353207E-16 ) ) ;
#170 = CARTESIAN_POINT ( 'NONE',  ( 5.236411251861965272E-14, -1.499999999999999112, 14.99767790137179091 ) ) ;
#171 = ADVANCED_FACE ( 'NONE', ( #230 ), #124, .F. ) ;
#172 = DIRECTION ( 'NONE',  ( 0.0000000000000000000, 1.000000000000000000, 0.0000000000000000000 ) ) ;
#173 = CARTESIAN_POINT ( 'NONE',  ( 4.629291927107337206E-14, 1.034074173710928246, 13.25881904510251630 ) ) ;
#174 = PERSON_AND_ORGANIZATION_ROLE ( 'design_supplier' ) ;
#175 = AXIS2_PLACEMENT_3D ( 'NONE', #26, #10, #254 ) ;
#176 = UNCERTAINTY_MEASURE_WITH_UNIT (LENGTH_MEASURE( 1.000000000000000082E-05 ), #134, 'distance_accuracy_value', 'NONE');
#177 = EDGE_CURVE ( 'NONE', #209, #209, #184, .T. ) ;
#178 = ORIENTED_EDGE ( 'NONE', *, *, #98, .F. ) ;
#179 = ORIENTED_EDGE ( 'NONE', *, *, #142, .T. ) ;
#180 = DIRECTION ( 'NONE',  ( -3.491481338843133355E-15, 4.327174794786742882E-16, -1.000000000000000000 ) ) ;
#181 = CC_DESIGN_APPROVAL ( #204, ( #255 ) ) ;
#182 = ORIENTED_EDGE ( 'NONE', *, *, #137, .T. ) ;
#183 = DIRECTION ( 'NONE',  ( 3.491481338843133355E-15, -4.327174794786742882E-16, 1.000000000000000000 ) ) ;
#184 = CIRCLE ( 'NONE', #1, 1.000000000000001998 ) ;
#185 = DIRECTION ( 'NONE',  ( 3.491481338843133355E-15, -1.224646799147353207E-16, 1.000000000000000000 ) ) ;
#186 = VERTEX_POINT ( 'NONE', #170 ) ;
#187 = DIRECTION ( 'NONE',  ( 3.491481338843133355E-15, -1.224646799147353207E-16, 1.000000000000000000 ) ) ;
#188 = EDGE_CURVE ( 'NONE', #233, #233, #215, .T. ) ;
#189 = CARTESIAN_POINT ( 'NONE',  ( 3.142333204958820651E-14, -1.000000000000005773, 9.000000000000001776 ) ) ;
#190 = SECURITY_CLASSIFICATION ( '', '', #71 ) ;
#191 = PERSON_AND_ORGANIZATION_ROLE ( 'creator' ) ;
#192 = DATE_TIME_ROLE ( 'classification_date' ) ;
#193 = CC_DESIGN_DATE_AND_TIME_ASSIGNMENT ( #115, #192, ( #190 ) ) ;
#194 = CIRCLE ( 'NONE', #241, 1.099999999999994982 ) ;
#195 = CALENDAR_DATE ( 2021, 13, 10 ) ;
#196 = PERSON_AND_ORGANIZATION ( #153, #122 ) ;
#197 = DIRECTION ( 'NONE',  ( 1.510825004591027855E-30, 1.000000000000000000, 4.327174794786742882E-16 ) ) ;
#198 = ORIENTED_EDGE ( 'NONE', *, *, #98, .T. ) ;
#199 = FACE_OUTER_BOUND ( 'NONE', #21, .T. ) ;
#200 = ORIENTED_EDGE ( 'NONE', *, *, #133, .F. ) ;
#201 = CIRCLE ( 'NONE', #127, 1.000000000000003997 ) ;
#202 = CARTESIAN_POINT ( 'NONE',  ( 5.236411251861965272E-14, -6.489757379514615114E-15, 14.99767790137179091 ) ) ;
#203 = DIRECTION ( 'NONE',  ( -3.491481338843133355E-15, 1.224646799147353207E-16, -1.000000000000000000 ) ) ;
#204 = APPROVAL ( #239, 'UNSPECIFIED' ) ;
#205 = FACE_OUTER_BOUND ( 'NONE', #18, .T. ) ;
#206 = CARTESIAN_POINT ( 'NONE',  ( 1.270795280834828149E-15, -1.000000000000001998, 0.3639702342662077816 ) ) ;
#207 = CARTESIAN_POINT ( 'NONE',  ( 4.538925740496072731E-14, -5.625327233222764958E-15, 12.99999999999999822 ) ) ;
#208 = MANIFOLD_SOLID_BREP ( 'Corps-Déplacer/Copier1[1]', #224 ) ;
#209 = VERTEX_POINT ( 'NONE', #189 ) ;
#210 = PERSON_AND_ORGANIZATION_ROLE ( 'classification_officer' ) ;
#211 = LOCAL_TIME ( 13, 35, 45.00000000000000000, #35 ) ;
#212 = CARTESIAN_POINT ( 'NONE',  ( 0.0000000000000000000, 0.0000000000000000000, 0.0000000000000000000 ) ) ;
#213 = COORDINATED_UNIVERSAL_TIME_OFFSET ( 1, 0, .AHEAD. ) ;
#214 = APPROVAL_DATE_TIME ( #155, #29 ) ;
#215 = CIRCLE ( 'NONE', #107, 1.034074173710934019 ) ;
#216 = APPROVAL_DATE_TIME ( #136, #204 ) ;
#217 = EDGE_LOOP ( 'NONE', ( #260 ) ) ;
#218 = ORIENTED_EDGE ( 'NONE', *, *, #177, .F. ) ;
#219 = AXIS2_PLACEMENT_3D ( 'NONE', #66, #147, #172 ) ;
#220 = FACE_OUTER_BOUND ( 'NONE', #222, .T. ) ;
#221 = CC_DESIGN_PERSON_AND_ORGANIZATION_ASSIGNMENT ( #34, #158, ( #150 ) ) ;
#222 = EDGE_LOOP ( 'NONE', ( #161 ) ) ;
#223 = EDGE_LOOP ( 'NONE', ( #103 ) ) ;
#224 = CLOSED_SHELL ( 'NONE', ( #151, #113, #171, #46, #247, #74, #240 ) ) ;
#225 = FACE_BOUND ( 'NONE', #64, .T. ) ;
#226 = ADVANCED_FACE ( 'NONE', ( #108 ), #231, .T. ) ;
#227 = FACE_OUTER_BOUND ( 'NONE', #223, .T. ) ;
#228 = AXIS2_PLACEMENT_3D ( 'NONE', #212, #50, #156 ) ;
#229 =( GEOMETRIC_REPRESENTATION_CONTEXT ( 3 ) GLOBAL_UNCERTAINTY_ASSIGNED_CONTEXT ( ( #176 ) ) GLOBAL_UNIT_ASSIGNED_CONTEXT ( ( #134, #12, #76 ) ) REPRESENTATION_CONTEXT ( 'NONE', 'WORKASPACE' ) );
#230 = FACE_OUTER_BOUND ( 'NONE', #258, .T. ) ;
#231 = PLANE ( 'NONE',  #148 ) ;
#232 = DATE_TIME_ROLE ( 'creation_date' ) ;
#233 = VERTEX_POINT ( 'NONE', #173 ) ;
#234 = CC_DESIGN_SECURITY_CLASSIFICATION ( #190, ( #255 ) ) ;
#235 = ADVANCED_BREP_SHAPE_REPRESENTATION ( '43300', ( #208, #129, #228 ), #229 ) ;
#236 = CC_DESIGN_PERSON_AND_ORGANIZATION_ASSIGNMENT ( #196, #174, ( #255 ) ) ;
#237 = COORDINATED_UNIVERSAL_TIME_OFFSET ( 1, 0, .AHEAD. ) ;
#238 = APPLICATION_PROTOCOL_DEFINITION ( 'international standard', 'config_control_design', 1994, #84 ) ;
#239 = APPROVAL_STATUS ( 'not_yet_approved' ) ;
#240 = ADVANCED_FACE ( 'NONE', ( #227 ), #49, .F. ) ;
#241 = AXIS2_PLACEMENT_3D ( 'NONE', #8, #28, #110 ) ;
#242 = CARTESIAN_POINT ( 'NONE',  ( 4.538925740496072731E-14, -5.637851296924623057E-15, 12.99999999999999822 ) ) ;
#243 = FACE_OUTER_BOUND ( 'NONE', #91, .T. ) ;
#244 = CC_DESIGN_PERSON_AND_ORGANIZATION_ASSIGNMENT ( #149, #210, ( #190 ) ) ;
#245 = DIRECTION ( 'NONE',  ( -3.491481338843133355E-15, 4.327174794786742882E-16, -1.000000000000000000 ) ) ;
#246 = FACE_OUTER_BOUND ( 'NONE', #83, .T. ) ;
#247 = ADVANCED_FACE ( 'NONE', ( #225, #105 ), #60, .T. ) ;
#248 = LOCAL_TIME ( 13, 35, 45.00000000000000000, #57 ) ;
#249 = DIRECTION ( 'NONE',  ( -3.491481338843133355E-15, 1.224646799147353207E-16, -1.000000000000000000 ) ) ;
#250 = DIRECTION ( 'NONE',  ( 3.491481338843133355E-15, -1.224646799147353207E-16, 1.000000000000000000 ) ) ;
#251 = CARTESIAN_POINT ( 'NONE',  ( 1.731774744066194144E-13, 1.499999999999989120, 49.60000000000000142 ) ) ;
#252 = CIRCLE ( 'NONE', #22, 1.000000000000001998 ) ;
#253 = DIRECTION ( 'NONE',  ( -4.275831445896958607E-31, -1.000000000000000000, -1.224646799147353207E-16 ) ) ;
#254 = DIRECTION ( 'NONE',  ( 4.275831445896958607E-31, 1.000000000000000000, 1.224646799147353207E-16 ) ) ;
#255 = PRODUCT_DEFINITION_FORMATION_WITH_SPECIFIED_SOURCE ( 'ANY', '', #150, .NOT_KNOWN. ) ;
#256 = EDGE_LOOP ( 'NONE', ( #198 ) ) ;
#257 = TOROIDAL_SURFACE ( 'NONE', #4, 2.000000000000003997, 1.000000000000001110 ) ;
#258 = EDGE_LOOP ( 'NONE', ( #200 ) ) ;
#259 = SHAPE_DEFINITION_REPRESENTATION ( #25, #235 ) ;
#260 = ORIENTED_EDGE ( 'NONE', *, *, #261, .T. ) ;
#261 = EDGE_CURVE ( 'NONE', #93, #93, #201, .T. ) ;
#262 = APPROVAL_ROLE ( '' ) ;
#263 = FACE_BOUND ( 'NONE', #165, .T. ) ;
ENDSEC;
END-ISO-10303-21;
