ISO-10303-21;
HEADER;
FILE_DESCRIPTION (( 'STEP AP203' ),
    '1' );
FILE_NAME ('43250.step',
    '2021-12-06T12:59:43',
    ( '' ),
    ( '' ),
    'SwSTEP 2.0',
    'SolidWorks 2019',
    '' );
FILE_SCHEMA (( 'CONFIG_CONTROL_DESIGN' ));
ENDSEC;

DATA;
#1 = PRODUCT_DEFINITION_SHAPE ( 'NONE', 'NONE',  #12 ) ;
#2 = UNCERTAINTY_MEASURE_WITH_UNIT (LENGTH_MEASURE( 1.000000000000000082E-05 ), #47, 'distance_accuracy_value', 'NONE');
#3 = DIRECTION ( 'NONE',  ( 6.996815093285930673E-31, 1.000000000000000000, 2.003967489513850277E-16 ) ) ;
#4 = DIRECTION ( 'NONE',  ( 6.162975822039157357E-31, 1.000000000000000000, 1.734723475976807834E-16 ) ) ;
#5 = PLANE ( 'NONE',  #123 ) ;
#6 = DIRECTION ( 'NONE',  ( -3.491481338843133355E-15, 2.003967489513850277E-16, -1.000000000000000000 ) ) ;
#7 = PERSON_AND_ORGANIZATION ( #129, #126 ) ;
#8 = MECHANICAL_CONTEXT ( 'NONE', #45, 'mechanical' ) ;
#9 = CALENDAR_DATE ( 2021, 6, 12 ) ;
#10 = SECURITY_CLASSIFICATION ( '', '', #168 ) ;
#11 = COORDINATED_UNIVERSAL_TIME_OFFSET ( 1, 0, .AHEAD. ) ;
#12 = PRODUCT_DEFINITION ( 'UNKNOWN', '', #13, #69 ) ;
#13 = PRODUCT_DEFINITION_FORMATION_WITH_SPECIFIED_SOURCE ( 'ANY', '', #149, .NOT_KNOWN. ) ;
#14 = EDGE_CURVE ( 'NONE', #23, #23, #109, .T. ) ;
#15 = ORIENTED_EDGE ( 'NONE', *, *, #22, .T. ) ;
#16 = CARTESIAN_POINT ( 'NONE',  ( 0.0000000000000000000, 2.499999999999999556, 0.0000000000000000000 ) ) ;
#17 = PLANE ( 'NONE',  #28 ) ;
#18 = CC_DESIGN_APPROVAL ( #31, ( #10 ) ) ;
#19 = FACE_BOUND ( 'NONE', #105, .T. ) ;
#20 = PRODUCT_RELATED_PRODUCT_CATEGORY ( 'detail', '', ( #149 ) ) ;
#21 = DIRECTION ( 'NONE',  ( 6.996815093285930673E-31, 1.000000000000000000, 2.003967489513850277E-16 ) ) ;
#22 = EDGE_CURVE ( 'NONE', #61, #61, #48, .T. ) ;
#23 = VERTEX_POINT ( 'NONE', #16 ) ;
#24 = PERSON_AND_ORGANIZATION ( #129, #126 ) ;
#25 = CALENDAR_DATE ( 2021, 6, 12 ) ;
#26 = COORDINATED_UNIVERSAL_TIME_OFFSET ( 1, 0, .AHEAD. ) ;
#27 = EDGE_LOOP ( 'NONE', ( #92 ) ) ;
#28 = AXIS2_PLACEMENT_3D ( 'NONE', #73, #124, #110 ) ;
#29 = APPLICATION_PROTOCOL_DEFINITION ( 'international standard', 'config_control_design', 1994, #45 ) ;
#30 = EDGE_LOOP ( 'NONE', ( #54 ) ) ;
#31 = APPROVAL ( #52, 'UNSPECIFIED' ) ;
#32 = AXIS2_PLACEMENT_3D ( 'NONE', #57, #6, #74 ) ;
#33 = CARTESIAN_POINT ( 'NONE',  ( 0.0000000000000000000, 0.0000000000000000000, 0.0000000000000000000 ) ) ;
#34 = CARTESIAN_POINT ( 'NONE',  ( -1.749203773321482318E-30, 1.003971424757110557E-31, -5.009918723784625076E-16 ) ) ;
#35 = CC_DESIGN_DATE_AND_TIME_ASSIGNMENT ( #113, #39, ( #10 ) ) ;
#36 = DIRECTION ( 'NONE',  ( 3.491481338843133355E-15, -2.003967489513850277E-16, 1.000000000000000000 ) ) ;
#37 = CYLINDRICAL_SURFACE ( 'NONE', #32, 2.499999999999999556 ) ;
#38 = DATE_AND_TIME ( #104, #134 ) ;
#39 = DATE_TIME_ROLE ( 'classification_date' ) ;
#40 = AXIS2_PLACEMENT_3D ( 'NONE', #157, #93, #163 ) ;
#41 = APPROVAL_DATE_TIME ( #158, #153 ) ;
#42 = CC_DESIGN_PERSON_AND_ORGANIZATION_ASSIGNMENT ( #76, #91, ( #149 ) ) ;
#43 = PERSON_AND_ORGANIZATION ( #129, #126 ) ;
#44 = CC_DESIGN_DATE_AND_TIME_ASSIGNMENT ( #38, #131, ( #12 ) ) ;
#45 = APPLICATION_CONTEXT ( 'configuration controlled 3d designs of mechanical parts and assemblies' ) ;
#46 = VERTEX_POINT ( 'NONE', #75 ) ;
#47 =( LENGTH_UNIT ( ) NAMED_UNIT ( * ) SI_UNIT ( .MILLI., .METRE. ) );
#48 = CIRCLE ( 'NONE', #137, 2.499999999999999112 ) ;
#49 = DIRECTION ( 'NONE',  ( -3.491481338843133355E-15, 2.003967489513850277E-16, -1.000000000000000000 ) ) ;
#50 = APPROVAL_STATUS ( 'not_yet_approved' ) ;
#51 = CC_DESIGN_APPROVAL ( #153, ( #12 ) ) ;
#52 = APPROVAL_STATUS ( 'not_yet_approved' ) ;
#53 = CC_DESIGN_PERSON_AND_ORGANIZATION_ASSIGNMENT ( #24, #143, ( #13 ) ) ;
#54 = ORIENTED_EDGE ( 'NONE', *, *, #14, .T. ) ;
#55 = EDGE_CURVE ( 'NONE', #46, #46, #141, .T. ) ;
#56 = EDGE_LOOP ( 'NONE', ( #118 ) ) ;
#57 = CARTESIAN_POINT ( 'NONE',  ( 0.0000000000000000000, 0.0000000000000000000, 0.0000000000000000000 ) ) ;
#58 = APPROVAL_PERSON_ORGANIZATION ( #132, #121, #79 ) ;
#59 = DIRECTION ( 'NONE',  ( -3.491481338843133355E-15, 2.003967489513850277E-16, -1.000000000000000000 ) ) ;
#60 = CARTESIAN_POINT ( 'NONE',  ( 0.0000000000000000000, 7.500000000000000000, 0.0000000000000000000 ) ) ;
#61 = VERTEX_POINT ( 'NONE', #97 ) ;
#62 = COORDINATED_UNIVERSAL_TIME_OFFSET ( 1, 0, .AHEAD. ) ;
#63 = APPLICATION_CONTEXT ( 'configuration controlled 3d designs of mechanical parts and assemblies' ) ;
#64 = APPROVAL_ROLE ( '' ) ;
#65 = DATE_AND_TIME ( #9, #72 ) ;
#66 = AXIS2_PLACEMENT_3D ( 'NONE', #33, #138, #21 ) ;
#67 = CALENDAR_DATE ( 2021, 6, 12 ) ;
#68 = ORIENTED_EDGE ( 'NONE', *, *, #55, .T. ) ;
#69 = DESIGN_CONTEXT ( 'detailed design', #63, 'design' ) ;
#70 =( NAMED_UNIT ( * ) PLANE_ANGLE_UNIT ( ) SI_UNIT ( $, .RADIAN. ) );
#71 = CARTESIAN_POINT ( 'NONE',  ( 3.840629472727445902E-15, 2.499999999999998668, 1.099999999999999645 ) ) ;
#72 = LOCAL_TIME ( 13, 59, 43.00000000000000000, #11 ) ;
#73 = CARTESIAN_POINT ( 'NONE',  ( -1.749203773321482318E-30, 2.499999999999999556, -5.009918723784625076E-16 ) ) ;
#74 = DIRECTION ( 'NONE',  ( 6.996815093285930673E-31, 1.000000000000000000, 2.003967489513850277E-16 ) ) ;
#75 = CARTESIAN_POINT ( 'NONE',  ( 3.840629472727447480E-15, 7.500000000000000000, 1.100000000000000089 ) ) ;
#76 = PERSON_AND_ORGANIZATION ( #129, #126 ) ;
#77 = PERSON_AND_ORGANIZATION ( #129, #126 ) ;
#78 = ADVANCED_FACE ( 'NONE', ( #152, #135 ), #17, .T. ) ;
#79 = APPROVAL_ROLE ( '' ) ;
#80 = DATE_AND_TIME ( #25, #96 ) ;
#81 = ORIENTED_EDGE ( 'NONE', *, *, #55, .F. ) ;
#82 = CLOSED_SHELL ( 'NONE', ( #78, #88, #147, #106 ) ) ;
#83 = FACE_OUTER_BOUND ( 'NONE', #30, .T. ) ;
#84 = CC_DESIGN_APPROVAL ( #121, ( #13 ) ) ;
#85 = DIRECTION ( 'NONE',  ( 6.996815093285930673E-31, 1.000000000000000000, 2.003967489513850277E-16 ) ) ;
#86 = FACE_OUTER_BOUND ( 'NONE', #102, .T. ) ;
#87 = PERSON_AND_ORGANIZATION ( #129, #126 ) ;
#88 = ADVANCED_FACE ( 'NONE', ( #161, #98 ), #150, .T. ) ;
#89 = APPROVAL_ROLE ( '' ) ;
#90 = LOCAL_TIME ( 13, 59, 43.00000000000000000, #95 ) ;
#91 = PERSON_AND_ORGANIZATION_ROLE ( 'design_owner' ) ;
#92 = ORIENTED_EDGE ( 'NONE', *, *, #14, .F. ) ;
#93 = DIRECTION ( 'NONE',  ( 0.0000000000000000000, 0.0000000000000000000, 1.000000000000000000 ) ) ;
#94 = EDGE_LOOP ( 'NONE', ( #68 ) ) ;
#95 = COORDINATED_UNIVERSAL_TIME_OFFSET ( 1, 0, .AHEAD. ) ;
#96 = LOCAL_TIME ( 13, 59, 43.00000000000000000, #142 ) ;
#97 = CARTESIAN_POINT ( 'NONE',  ( 3.840629472727447480E-15, 2.499999999999998668, 1.100000000000000089 ) ) ;
#98 = FACE_OUTER_BOUND ( 'NONE', #117, .T. ) ;
#99 = PERSON_AND_ORGANIZATION_ROLE ( 'creator' ) ;
#100 = PERSON_AND_ORGANIZATION ( #129, #126 ) ;
#101 = AXIS2_PLACEMENT_3D ( 'NONE', #34, #127, #85 ) ;
#102 = EDGE_LOOP ( 'NONE', ( #81 ) ) ;
#103 = APPROVAL_STATUS ( 'not_yet_approved' ) ;
#104 = CALENDAR_DATE ( 2021, 6, 12 ) ;
#105 = EDGE_LOOP ( 'NONE', ( #15 ) ) ;
#106 = ADVANCED_FACE ( 'NONE', ( #83, #162 ), #37, .F. ) ;
#107 = CC_DESIGN_SECURITY_CLASSIFICATION ( #10, ( #13 ) ) ;
#108 = CARTESIAN_POINT ( 'NONE',  ( 3.840629472727441958E-15, -2.204364238465232617E-16, 1.099999999999998535 ) ) ;
#109 = CIRCLE ( 'NONE', #101, 2.499999999999999556 ) ;
#110 = DIRECTION ( 'NONE',  ( 6.996815093285930673E-31, 1.000000000000000000, 2.003967489513850277E-16 ) ) ;
#111 = CARTESIAN_POINT ( 'NONE',  ( 3.840629472727445902E-15, -2.204364238465234590E-16, 1.099999999999999645 ) ) ;
#112 = VERTEX_POINT ( 'NONE', #60 ) ;
#113 = DATE_AND_TIME ( #154, #146 ) ;
#114 = CC_DESIGN_PERSON_AND_ORGANIZATION_ASSIGNMENT ( #77, #164, ( #12 ) ) ;
#115 = APPROVAL_DATE_TIME ( #80, #31 ) ;
#116 = ADVANCED_BREP_SHAPE_REPRESENTATION ( '43250', ( #140, #40 ), #159 ) ;
#117 = EDGE_LOOP ( 'NONE', ( #144 ) ) ;
#118 = ORIENTED_EDGE ( 'NONE', *, *, #22, .F. ) ;
#119 = EDGE_CURVE ( 'NONE', #112, #112, #155, .T. ) ;
#120 = AXIS2_PLACEMENT_3D ( 'NONE', #108, #59, #148 ) ;
#121 = APPROVAL ( #50, 'UNSPECIFIED' ) ;
#122 = CC_DESIGN_PERSON_AND_ORGANIZATION_ASSIGNMENT ( #43, #145, ( #10 ) ) ;
#123 = AXIS2_PLACEMENT_3D ( 'NONE', #71, #36, #139 ) ;
#124 = DIRECTION ( 'NONE',  ( -3.491481338843133355E-15, 2.003967489513850277E-16, -1.000000000000000000 ) ) ;
#125 =( NAMED_UNIT ( * ) SI_UNIT ( $, .STERADIAN. ) SOLID_ANGLE_UNIT ( ) );
#126 = ORGANIZATION ( 'UNSPECIFIED', 'UNSPECIFIED', '' ) ;
#127 = DIRECTION ( 'NONE',  ( -3.491481338843133355E-15, 2.003967489513850277E-16, -1.000000000000000000 ) ) ;
#128 = DIRECTION ( 'NONE',  ( -3.491481338843133355E-15, 2.003967489513850277E-16, -1.000000000000000000 ) ) ;
#129 = PERSON ( 'UNSPECIFIED', 'UNSPECIFIED', 'UNSPECIFIED', ('UNSPECIFIED'), ('UNSPECIFIED'), ('UNSPECIFIED') ) ;
#130 = APPLICATION_PROTOCOL_DEFINITION ( 'international standard', 'config_control_design', 1994, #63 ) ;
#131 = DATE_TIME_ROLE ( 'creation_date' ) ;
#132 = PERSON_AND_ORGANIZATION ( #129, #126 ) ;
#133 = AXIS2_PLACEMENT_3D ( 'NONE', #151, #128, #3 ) ;
#134 = LOCAL_TIME ( 13, 59, 43.00000000000000000, #62 ) ;
#135 = FACE_BOUND ( 'NONE', #27, .T. ) ;
#136 = CC_DESIGN_PERSON_AND_ORGANIZATION_ASSIGNMENT ( #87, #99, ( #13 ) ) ;
#137 = AXIS2_PLACEMENT_3D ( 'NONE', #111, #49, #4 ) ;
#138 = DIRECTION ( 'NONE',  ( -3.491481338843133355E-15, 2.003967489513850277E-16, -1.000000000000000000 ) ) ;
#139 = DIRECTION ( 'NONE',  ( -6.996815093285930673E-31, -1.000000000000000000, -2.003967489513850277E-16 ) ) ;
#140 = MANIFOLD_SOLID_BREP ( 'Corps-Déplacer/Copier1', #82 ) ;
#141 = CIRCLE ( 'NONE', #120, 7.500000000000000000 ) ;
#142 = COORDINATED_UNIVERSAL_TIME_OFFSET ( 1, 0, .AHEAD. ) ;
#143 = PERSON_AND_ORGANIZATION_ROLE ( 'design_supplier' ) ;
#144 = ORIENTED_EDGE ( 'NONE', *, *, #119, .F. ) ;
#145 = PERSON_AND_ORGANIZATION_ROLE ( 'classification_officer' ) ;
#146 = LOCAL_TIME ( 13, 59, 43.00000000000000000, #26 ) ;
#147 = ADVANCED_FACE ( 'NONE', ( #19, #86 ), #5, .T. ) ;
#148 = DIRECTION ( 'NONE',  ( 7.190138459045680810E-31, 1.000000000000000000, 2.023844055306275026E-16 ) ) ;
#149 = PRODUCT ( '43250', '43250', '', ( #8 ) ) ;
#150 = CYLINDRICAL_SURFACE ( 'NONE', #66, 7.500000000000000000 ) ;
#151 = CARTESIAN_POINT ( 'NONE',  ( -5.247611319964448005E-30, 3.011914274271332545E-31, -1.502975617135387720E-15 ) ) ;
#152 = FACE_OUTER_BOUND ( 'NONE', #167, .T. ) ;
#153 = APPROVAL ( #103, 'UNSPECIFIED' ) ;
#154 = CALENDAR_DATE ( 2021, 6, 12 ) ;
#155 = CIRCLE ( 'NONE', #133, 7.500000000000000000 ) ;
#156 = APPROVAL_DATE_TIME ( #65, #121 ) ;
#157 = CARTESIAN_POINT ( 'NONE',  ( 0.0000000000000000000, 0.0000000000000000000, 0.0000000000000000000 ) ) ;
#158 = DATE_AND_TIME ( #67, #90 ) ;
#159 =( GEOMETRIC_REPRESENTATION_CONTEXT ( 3 ) GLOBAL_UNCERTAINTY_ASSIGNED_CONTEXT ( ( #2 ) ) GLOBAL_UNIT_ASSIGNED_CONTEXT ( ( #47, #70, #125 ) ) REPRESENTATION_CONTEXT ( 'NONE', 'WORKASPACE' ) );
#160 = APPROVAL_PERSON_ORGANIZATION ( #7, #153, #64 ) ;
#161 = FACE_OUTER_BOUND ( 'NONE', #94, .T. ) ;
#162 = FACE_OUTER_BOUND ( 'NONE', #56, .T. ) ;
#163 = DIRECTION ( 'NONE',  ( 1.000000000000000000, 0.0000000000000000000, 0.0000000000000000000 ) ) ;
#164 = PERSON_AND_ORGANIZATION_ROLE ( 'creator' ) ;
#165 = APPROVAL_PERSON_ORGANIZATION ( #100, #31, #89 ) ;
#166 = SHAPE_DEFINITION_REPRESENTATION ( #1, #116 ) ;
#167 = EDGE_LOOP ( 'NONE', ( #169 ) ) ;
#168 = SECURITY_CLASSIFICATION_LEVEL ( 'unclassified' ) ;
#169 = ORIENTED_EDGE ( 'NONE', *, *, #119, .T. ) ;
ENDSEC;
END-ISO-10303-21;
