ISO-10303-21;
HEADER;
FILE_DESCRIPTION (( 'STEP AP203' ),
    '1' );
FILE_NAME ('43241.step',
    '2021-09-02T07:28:19',
    ( '' ),
    ( '' ),
    'SwSTEP 2.0',
    'SolidWorks 2019',
    '' );
FILE_SCHEMA (( 'CONFIG_CONTROL_DESIGN' ));
ENDSEC;

DATA;
#1 =( LENGTH_UNIT ( ) NAMED_UNIT ( * ) SI_UNIT ( .MILLI., .METRE. ) );
#2 = ORIENTED_EDGE ( 'NONE', *, *, #269, .T. ) ;
#3 = FACE_OUTER_BOUND ( 'NONE', #52, .T. ) ;
#4 = CARTESIAN_POINT ( 'NONE',  ( 1.209484614510994631E-14, -4.242300954899669568E-16, 3.464101615137788581 ) ) ;
#5 = APPLICATION_PROTOCOL_DEFINITION ( 'international standard', 'config_control_design', 1994, #183 ) ;
#6 = DIRECTION ( 'NONE',  ( 1.851798193294071889E-15, 0.8660254037844362651, 0.5000000000000042188 ) ) ;
#7 = LOCAL_TIME ( 9, 28, 19.00000000000000000, #192 ) ;
#8 = LINE ( 'NONE', #51, #85 ) ;
#9 = ORIENTED_EDGE ( 'NONE', *, *, #209, .F. ) ;
#10 =( NAMED_UNIT ( * ) PLANE_ANGLE_UNIT ( ) SI_UNIT ( $, .RADIAN. ) );
#11 = ORIENTED_EDGE ( 'NONE', *, *, #284, .T. ) ;
#12 = PERSON_AND_ORGANIZATION ( #84, #223 ) ;
#13 = ORIENTED_EDGE ( 'NONE', *, *, #209, .T. ) ;
#14 = COORDINATED_UNIVERSAL_TIME_OFFSET ( 1, 0, .AHEAD. ) ;
#15 = CALENDAR_DATE ( 2021, 2, 9 ) ;
#16 = AXIS2_PLACEMENT_3D ( 'NONE', #34, #220, #99 ) ;
#17 = CARTESIAN_POINT ( 'NONE',  ( 1.209484614510994631E-14, -5.007715329123920959E-16, 3.464101615137788581 ) ) ;
#18 = VECTOR ( 'NONE', #152, 999.9999999999998863 ) ;
#19 = EDGE_CURVE ( 'NONE', #240, #189, #262, .T. ) ;
#20 = DIRECTION ( 'NONE',  ( -2.382254525458723780E-15, -0.7071067811865453523, -0.7071067811865496822 ) ) ;
#21 = ORIENTED_EDGE ( 'NONE', *, *, #269, .F. ) ;
#22 = DIRECTION ( 'NONE',  ( -3.491481338843133355E-15, 1.224646799147353207E-16, -1.000000000000000000 ) ) ;
#23 = ADVANCED_FACE ( 'NONE', ( #249 ), #54, .T. ) ;
#24 = ORIENTED_EDGE ( 'NONE', *, *, #132, .F. ) ;
#25 = PERSON_AND_ORGANIZATION ( #84, #223 ) ;
#26 = ADVANCED_BREP_SHAPE_REPRESENTATION ( '43241', ( #248, #68, #282 ), #158 ) ;
#27 = CARTESIAN_POINT ( 'NONE',  ( 1.209484614510994473E-14, -5.999999999999991118, 3.464101615137787693 ) ) ;
#28 = APPLICATION_PROTOCOL_DEFINITION ( 'international standard', 'config_control_design', 1994, #191 ) ;
#29 = PRODUCT ( '43241', '43241', '', ( #239 ) ) ;
#30 = ORIENTED_EDGE ( 'NONE', *, *, #254, .F. ) ;
#31 = CIRCLE ( 'NONE', #154, 6.000000000000001776 ) ;
#32 = CC_DESIGN_DATE_AND_TIME_ASSIGNMENT ( #39, #148, ( #229 ) ) ;
#33 = CARTESIAN_POINT ( 'NONE',  ( 1.209484614510994946E-14, 5.999999999999991118, 3.464101615137789469 ) ) ;
#34 = CARTESIAN_POINT ( 'NONE',  ( 2.856031735173682958E-13, -1.001761081702534806E-14, 81.79999999999999716 ) ) ;
#35 = VERTEX_POINT ( 'NONE', #70 ) ;
#36 = AXIS2_PLACEMENT_3D ( 'NONE', #232, #58, #172 ) ;
#37 = CARTESIAN_POINT ( 'NONE',  ( 1.209484614510994631E-14, -4.242300954899669568E-16, 3.464101615137788581 ) ) ;
#38 = DIRECTION ( 'NONE',  ( -3.491481338843133355E-15, 1.224646799147353207E-16, -1.000000000000000000 ) ) ;
#39 = DATE_AND_TIME ( #278, #234 ) ;
#40 = APPROVAL_ROLE ( '' ) ;
#41 = DESIGN_CONTEXT ( 'detailed design', #183, 'design' ) ;
#42 = CIRCLE ( 'NONE', #176, 4.800000000000002487 ) ;
#43 = AXIS2_PLACEMENT_3D ( 'NONE', #286, #258, #122 ) ;
#44 = CC_DESIGN_PERSON_AND_ORGANIZATION_ASSIGNMENT ( #207, #190, ( #165 ) ) ;
#45 = EDGE_CURVE ( 'NONE', #242, #210, #42, .T. ) ;
#46 = FACE_OUTER_BOUND ( 'NONE', #187, .T. ) ;
#47 = AXIS2_PLACEMENT_3D ( 'NONE', #69, #164, #115 ) ;
#48 = CARTESIAN_POINT ( 'NONE',  ( 2.897929511239800811E-13, -1.016456843292303150E-14, 83.00000000000000000 ) ) ;
#49 = CARTESIAN_POINT ( 'NONE',  ( 1.209484614510994631E-14, -4.242300954899669568E-16, 3.464101615137788581 ) ) ;
#50 = ORIENTED_EDGE ( 'NONE', *, *, #178, .F. ) ;
#51 = CARTESIAN_POINT ( 'NONE',  ( 7.347880794884090154E-16, -5.999999999999996447, -7.347880794884140444E-16 ) ) ;
#52 = EDGE_LOOP ( 'NONE', ( #196, #2 ) ) ;
#53 = ORIENTED_EDGE ( 'NONE', *, *, #111, .T. ) ;
#54 = CONICAL_SURFACE ( 'NONE', #214, 4.800000000000002487, 0.7853981633974453924 ) ;
#55 = DIRECTION ( 'NONE',  ( 0.0000000000000000000, 1.000000000000000000, 0.0000000000000000000 ) ) ;
#56 = CARTESIAN_POINT ( 'NONE',  ( 2.903807815875708401E-13, -4.800000000000012257, 83.00000000000000000 ) ) ;
#57 = EDGE_LOOP ( 'NONE', ( #30, #206, #73, #21 ) ) ;
#58 = DIRECTION ( 'NONE',  ( 3.491481338843133355E-15, -1.224646799147353207E-16, 1.000000000000000000 ) ) ;
#59 = DIRECTION ( 'NONE',  ( -3.491481338843133355E-15, 1.224646799147353207E-16, -1.000000000000000000 ) ) ;
#60 = CC_DESIGN_SECURITY_CLASSIFICATION ( #229, ( #165 ) ) ;
#61 = CALENDAR_DATE ( 2021, 2, 9 ) ;
#62 = CARTESIAN_POINT ( 'NONE',  ( 2.856031735173682958E-13, -1.001761081702534806E-14, 81.79999999999999716 ) ) ;
#63 = DATE_TIME_ROLE ( 'creation_date' ) ;
#64 = APPROVAL ( #83, 'UNSPECIFIED' ) ;
#65 = SECURITY_CLASSIFICATION_LEVEL ( 'unclassified' ) ;
#66 = EDGE_CURVE ( 'NONE', #35, #118, #101, .T. ) ;
#67 = AXIS2_PLACEMENT_3D ( 'NONE', #247, #124, #205 ) ;
#68 = MANIFOLD_SOLID_BREP ( 'Corps-Déplacer/Copier1[2]', #217 ) ;
#69 = CARTESIAN_POINT ( 'NONE',  ( 1.209484614510994631E-14, -5.007715329123920959E-16, 3.464101615137788581 ) ) ;
#70 = CARTESIAN_POINT ( 'NONE',  ( 1.282963422459836035E-14, 5.999999999999991118, 3.464101615137789469 ) ) ;
#71 = LOCAL_TIME ( 9, 28, 19.00000000000000000, #87 ) ;
#72 = DIRECTION ( 'NONE',  ( 0.0000000000000000000, 1.000000000000000000, 0.0000000000000000000 ) ) ;
#73 = ORIENTED_EDGE ( 'NONE', *, *, #216, .T. ) ;
#74 = CARTESIAN_POINT ( 'NONE',  ( 2.856031735173682958E-13, 5.999999999999991118, 81.79999999999999716 ) ) ;
#75 = CC_DESIGN_PERSON_AND_ORGANIZATION_ASSIGNMENT ( #250, #213, ( #165 ) ) ;
#76 = CYLINDRICAL_SURFACE ( 'NONE', #233, 5.999999999999996447 ) ;
#77 = CARTESIAN_POINT ( 'NONE',  ( 2.897929511239800811E-13, -1.016456843292303150E-14, 83.00000000000000000 ) ) ;
#78 = CARTESIAN_POINT ( 'NONE',  ( 2.897929511239800811E-13, 4.799999999999991829, 83.00000000000000000 ) ) ;
#79 = CIRCLE ( 'NONE', #114, 4.800000000000002487 ) ;
#80 = ORIENTED_EDGE ( 'NONE', *, *, #216, .F. ) ;
#81 = CONICAL_SURFACE ( 'NONE', #203, 4.800000000000002487, 0.7853981633974453924 ) ;
#82 = SHAPE_DEFINITION_REPRESENTATION ( #184, #26 ) ;
#83 = APPROVAL_STATUS ( 'not_yet_approved' ) ;
#84 = PERSON ( 'UNSPECIFIED', 'UNSPECIFIED', 'UNSPECIFIED', ('UNSPECIFIED'), ('UNSPECIFIED'), ('UNSPECIFIED') ) ;
#85 = VECTOR ( 'NONE', #197, 1000.000000000000000 ) ;
#86 = AXIS2_PLACEMENT_3D ( 'NONE', #94, #155, #236 ) ;
#87 = COORDINATED_UNIVERSAL_TIME_OFFSET ( 1, 0, .AHEAD. ) ;
#88 = ADVANCED_FACE ( 'NONE', ( #181 ), #76, .T. ) ;
#89 = CARTESIAN_POINT ( 'NONE',  ( 1.495837979107274665E-13, -5.999999999999991118, 3.464101615137787693 ) ) ;
#90 = AXIS2_PLACEMENT_3D ( 'NONE', #37, #59, #255 ) ;
#91 = CARTESIAN_POINT ( 'NONE',  ( 1.495837979107272645E-13, -6.000000000000012434, 81.79999999999999716 ) ) ;
#92 = DIRECTION ( 'NONE',  ( -3.491481338843133355E-15, 1.224646799147353207E-16, -1.000000000000000000 ) ) ;
#93 = CC_DESIGN_PERSON_AND_ORGANIZATION_ASSIGNMENT ( #188, #104, ( #146 ) ) ;
#94 = CARTESIAN_POINT ( 'NONE',  ( 2.897929511239800811E-13, 3.599423478388444574E-32, 83.00000000000000000 ) ) ;
#95 = CIRCLE ( 'NONE', #90, 5.999999999999991118 ) ;
#96 = ORIENTED_EDGE ( 'NONE', *, *, #45, .T. ) ;
#97 = ORIENTED_EDGE ( 'NONE', *, *, #111, .F. ) ;
#98 = LINE ( 'NONE', #241, #201 ) ;
#99 = DIRECTION ( 'NONE',  ( 0.0000000000000000000, 1.000000000000000000, 0.0000000000000000000 ) ) ;
#100 = CALENDAR_DATE ( 2021, 2, 9 ) ;
#101 = CIRCLE ( 'NONE', #245, 5.999999999999991118 ) ;
#102 = CARTESIAN_POINT ( 'NONE',  ( 2.897929511239800811E-13, -1.016456843292303150E-14, 83.00000000000000000 ) ) ;
#103 = EDGE_LOOP ( 'NONE', ( #140, #96, #116, #180 ) ) ;
#104 = PERSON_AND_ORGANIZATION_ROLE ( 'creator' ) ;
#105 = UNCERTAINTY_MEASURE_WITH_UNIT (LENGTH_MEASURE( 1.000000000000000082E-05 ), #1, 'distance_accuracy_value', 'NONE');
#106 = APPROVAL ( #252, 'UNSPECIFIED' ) ;
#107 = CLOSED_SHELL ( 'NONE', ( #182, #219, #260, #88, #23, #215 ) ) ;
#108 = LOCAL_TIME ( 9, 28, 19.00000000000000000, #14 ) ;
#109 = CARTESIAN_POINT ( 'NONE',  ( 0.0000000000000000000, 0.0000000000000000000, 0.0000000000000000000 ) ) ;
#110 = FACE_OUTER_BOUND ( 'NONE', #135, .T. ) ;
#111 = EDGE_CURVE ( 'NONE', #210, #242, #79, .T. ) ;
#112 = APPROVAL_PERSON_ORGANIZATION ( #12, #263, #40 ) ;
#113 = PRODUCT_RELATED_PRODUCT_CATEGORY ( 'detail', '', ( #29 ) ) ;
#114 = AXIS2_PLACEMENT_3D ( 'NONE', #48, #267, #72 ) ;
#115 = DIRECTION ( 'NONE',  ( -4.275831445896958607E-31, -1.000000000000000000, -1.224646799147353207E-16 ) ) ;
#116 = ORIENTED_EDGE ( 'NONE', *, *, #162, .T. ) ;
#117 = CARTESIAN_POINT ( 'NONE',  ( 2.883593715922137734E-13, -4.800000000000012257, 83.00000000000000000 ) ) ;
#118 = VERTEX_POINT ( 'NONE', #27 ) ;
#119 = PERSON_AND_ORGANIZATION_ROLE ( 'design_owner' ) ;
#120 = LINE ( 'NONE', #199, #147 ) ;
#121 = EDGE_CURVE ( 'NONE', #159, #35, #120, .T. ) ;
#122 = DIRECTION ( 'NONE',  ( 5.135813185032636532E-31, 1.000000000000000000, 1.445602896647341382E-16 ) ) ;
#123 = EDGE_LOOP ( 'NONE', ( #97, #271 ) ) ;
#124 = DIRECTION ( 'NONE',  ( 3.491481338843133355E-15, -1.224646799147353207E-16, 1.000000000000000000 ) ) ;
#125 = ORIENTED_EDGE ( 'NONE', *, *, #66, .F. ) ;
#126 = CIRCLE ( 'NONE', #246, 5.999999999999991118 ) ;
#127 = ORIENTED_EDGE ( 'NONE', *, *, #178, .T. ) ;
#128 = COORDINATED_UNIVERSAL_TIME_OFFSET ( 1, 0, .AHEAD. ) ;
#129 = CALENDAR_DATE ( 2021, 2, 9 ) ;
#130 = AXIS2_PLACEMENT_3D ( 'NONE', #272, #143, #202 ) ;
#131 = LINE ( 'NONE', #257, #18 ) ;
#132 = EDGE_CURVE ( 'NONE', #265, #163, #95, .T. ) ;
#133 = CC_DESIGN_DATE_AND_TIME_ASSIGNMENT ( #149, #63, ( #146 ) ) ;
#134 = CC_DESIGN_APPROVAL ( #263, ( #229 ) ) ;
#135 = EDGE_LOOP ( 'NONE', ( #9, #125 ) ) ;
#136 = LINE ( 'NONE', #56, #195 ) ;
#137 = EDGE_CURVE ( 'NONE', #189, #240, #31, .T. ) ;
#138 = EDGE_LOOP ( 'NONE', ( #53, #11, #218, #268 ) ) ;
#139 =( NAMED_UNIT ( * ) SI_UNIT ( $, .STERADIAN. ) SOLID_ANGLE_UNIT ( ) );
#140 = ORIENTED_EDGE ( 'NONE', *, *, #284, .F. ) ;
#141 = CYLINDRICAL_SURFACE ( 'NONE', #130, 5.999999999999996447 ) ;
#142 = DIRECTION ( 'NONE',  ( 5.135813185032636532E-31, 1.000000000000000000, 1.445602896647341382E-16 ) ) ;
#143 = DIRECTION ( 'NONE',  ( -3.491481338843133355E-15, 1.224646799147353207E-16, -1.000000000000000000 ) ) ;
#144 = DIRECTION ( 'NONE',  ( 0.0000000000000000000, 1.000000000000000000, 0.0000000000000000000 ) ) ;
#145 = DIRECTION ( 'NONE',  ( 0.0000000000000000000, 1.000000000000000000, 0.0000000000000000000 ) ) ;
#146 = PRODUCT_DEFINITION ( 'UNKNOWN', '', #165, #41 ) ;
#147 = VECTOR ( 'NONE', #6, 1000.000000000000114 ) ;
#148 = DATE_TIME_ROLE ( 'classification_date' ) ;
#149 = DATE_AND_TIME ( #15, #71 ) ;
#150 = CC_DESIGN_APPROVAL ( #64, ( #146 ) ) ;
#151 = CARTESIAN_POINT ( 'NONE',  ( 2.897929511239800811E-13, 4.799999999999991829, 83.00000000000000000 ) ) ;
#152 = DIRECTION ( 'NONE',  ( 1.745740669421580877E-15, -0.8660254037844363761, 0.5000000000000039968 ) ) ;
#153 = ADVANCED_FACE ( 'NONE', ( #283 ), #259, .T. ) ;
#154 = AXIS2_PLACEMENT_3D ( 'NONE', #62, #38, #212 ) ;
#155 = DIRECTION ( 'NONE',  ( -3.491481338843133355E-15, 1.224646799147353207E-16, -1.000000000000000000 ) ) ;
#156 = DIRECTION ( 'NONE',  ( -3.491481338843133355E-15, 1.224646799147353207E-16, -1.000000000000000000 ) ) ;
#157 = DIRECTION ( 'NONE',  ( 1.000000000000000000, 0.0000000000000000000, 0.0000000000000000000 ) ) ;
#158 =( GEOMETRIC_REPRESENTATION_CONTEXT ( 3 ) GLOBAL_UNCERTAINTY_ASSIGNED_CONTEXT ( ( #105 ) ) GLOBAL_UNIT_ASSIGNED_CONTEXT ( ( #1, #10, #139 ) ) REPRESENTATION_CONTEXT ( 'NONE', 'WORKASPACE' ) );
#159 = VERTEX_POINT ( 'NONE', #109 ) ;
#160 = FACE_OUTER_BOUND ( 'NONE', #123, .T. ) ;
#161 = EDGE_LOOP ( 'NONE', ( #276, #177, #24, #80 ) ) ;
#162 = EDGE_CURVE ( 'NONE', #210, #240, #174, .T. ) ;
#163 = VERTEX_POINT ( 'NONE', #89 ) ;
#164 = DIRECTION ( 'NONE',  ( 3.491481338843133355E-15, -1.224646799147353207E-16, 1.000000000000000000 ) ) ;
#165 = PRODUCT_DEFINITION_FORMATION_WITH_SPECIFIED_SOURCE ( 'ANY', '', #29, .NOT_KNOWN. ) ;
#166 = ORIENTED_EDGE ( 'NONE', *, *, #66, .T. ) ;
#167 = APPROVAL_ROLE ( '' ) ;
#168 = COORDINATED_UNIVERSAL_TIME_OFFSET ( 1, 0, .AHEAD. ) ;
#169 = CC_DESIGN_PERSON_AND_ORGANIZATION_ASSIGNMENT ( #25, #119, ( #29 ) ) ;
#170 = CIRCLE ( 'NONE', #43, 5.999999999999991118 ) ;
#171 = DATE_AND_TIME ( #61, #108 ) ;
#172 = DIRECTION ( 'NONE',  ( -5.135813185032636532E-31, -1.000000000000000000, -1.445602896647341382E-16 ) ) ;
#173 = DIRECTION ( 'NONE',  ( -2.468850131082271655E-15, 0.7071067811865455743, -0.7071067811865493491 ) ) ;
#174 = LINE ( 'NONE', #151, #238 ) ;
#175 = DIRECTION ( 'NONE',  ( -4.275831445896958607E-31, -1.000000000000000000, -1.224646799147353207E-16 ) ) ;
#176 = AXIS2_PLACEMENT_3D ( 'NONE', #77, #244, #55 ) ;
#177 = ORIENTED_EDGE ( 'NONE', *, *, #254, .T. ) ;
#178 = EDGE_CURVE ( 'NONE', #159, #118, #131, .T. ) ;
#179 = CARTESIAN_POINT ( 'NONE',  ( 0.0000000000000000000, 0.0000000000000000000, 0.0000000000000000000 ) ) ;
#180 = ORIENTED_EDGE ( 'NONE', *, *, #137, .F. ) ;
#181 = FACE_OUTER_BOUND ( 'NONE', #57, .T. ) ;
#182 = ADVANCED_FACE ( 'NONE', ( #251 ), #81, .T. ) ;
#183 = APPLICATION_CONTEXT ( 'configuration controlled 3d designs of mechanical parts and assemblies' ) ;
#184 = PRODUCT_DEFINITION_SHAPE ( 'NONE', 'NONE',  #146 ) ;
#185 = CARTESIAN_POINT ( 'NONE',  ( 2.897929511239800811E-13, -1.016456843292303150E-14, 83.00000000000000000 ) ) ;
#186 = DIRECTION ( 'NONE',  ( -3.491481338843133355E-15, 1.224646799147353207E-16, -1.000000000000000000 ) ) ;
#187 = EDGE_LOOP ( 'NONE', ( #204, #127, #13 ) ) ;
#188 = PERSON_AND_ORGANIZATION ( #84, #223 ) ;
#189 = VERTEX_POINT ( 'NONE', #91 ) ;
#190 = PERSON_AND_ORGANIZATION_ROLE ( 'creator' ) ;
#191 = APPLICATION_CONTEXT ( 'configuration controlled 3d designs of mechanical parts and assemblies' ) ;
#192 = COORDINATED_UNIVERSAL_TIME_OFFSET ( 1, 0, .AHEAD. ) ;
#193 = CONICAL_SURFACE ( 'NONE', #67, 5.999999999999991118, 1.047197551196592968 ) ;
#194 = DIRECTION ( 'NONE',  ( 3.491481338843133355E-15, -1.224646799147353207E-16, 1.000000000000000000 ) ) ;
#195 = VECTOR ( 'NONE', #20, 1000.000000000000000 ) ;
#196 = ORIENTED_EDGE ( 'NONE', *, *, #132, .T. ) ;
#197 = DIRECTION ( 'NONE',  ( -3.491481338843133355E-15, 1.224646799147353207E-16, -1.000000000000000000 ) ) ;
#198 = DIRECTION ( 'NONE',  ( -3.491481338843133355E-15, 1.224646799147353207E-16, -1.000000000000000000 ) ) ;
#199 = CARTESIAN_POINT ( 'NONE',  ( 1.282963422459836035E-14, 5.999999999999991118, 3.464101615137789469 ) ) ;
#200 = ADVANCED_FACE ( 'NONE', ( #110 ), #261, .T. ) ;
#201 = VECTOR ( 'NONE', #22, 1000.000000000000000 ) ;
#202 = DIRECTION ( 'NONE',  ( 4.275831445896958607E-31, 1.000000000000000000, 1.224646799147353454E-16 ) ) ;
#203 = AXIS2_PLACEMENT_3D ( 'NONE', #102, #279, #145 ) ;
#204 = ORIENTED_EDGE ( 'NONE', *, *, #121, .F. ) ;
#205 = DIRECTION ( 'NONE',  ( -5.135813185032636532E-31, -1.000000000000000000, -1.445602896647341382E-16 ) ) ;
#206 = ORIENTED_EDGE ( 'NONE', *, *, #137, .T. ) ;
#207 = PERSON_AND_ORGANIZATION ( #84, #223 ) ;
#208 = APPROVAL_PERSON_ORGANIZATION ( #270, #64, #167 ) ;
#209 = EDGE_CURVE ( 'NONE', #118, #35, #170, .T. ) ;
#210 = VERTEX_POINT ( 'NONE', #78 ) ;
#211 = APPROVAL_DATE_TIME ( #280, #106 ) ;
#212 = DIRECTION ( 'NONE',  ( 0.0000000000000000000, 1.000000000000000000, 0.0000000000000000000 ) ) ;
#213 = PERSON_AND_ORGANIZATION_ROLE ( 'design_supplier' ) ;
#214 = AXIS2_PLACEMENT_3D ( 'NONE', #185, #198, #144 ) ;
#215 = ADVANCED_FACE ( 'NONE', ( #160 ), #221, .F. ) ;
#216 = EDGE_CURVE ( 'NONE', #240, #265, #98, .T. ) ;
#217 = CLOSED_SHELL ( 'NONE', ( #153, #275, #200 ) ) ;
#218 = ORIENTED_EDGE ( 'NONE', *, *, #19, .F. ) ;
#219 = ADVANCED_FACE ( 'NONE', ( #224 ), #141, .T. ) ;
#220 = DIRECTION ( 'NONE',  ( -3.491481338843133355E-15, 1.224646799147353207E-16, -1.000000000000000000 ) ) ;
#221 = PLANE ( 'NONE',  #86 ) ;
#222 = ORIENTED_EDGE ( 'NONE', *, *, #121, .T. ) ;
#223 = ORGANIZATION ( 'UNSPECIFIED', 'UNSPECIFIED', '' ) ;
#224 = FACE_OUTER_BOUND ( 'NONE', #161, .T. ) ;
#225 = CARTESIAN_POINT ( 'NONE',  ( 0.0000000000000000000, 0.0000000000000000000, 0.0000000000000000000 ) ) ;
#226 = DATE_AND_TIME ( #129, #7 ) ;
#227 = APPROVAL_ROLE ( '' ) ;
#228 = APPROVAL_STATUS ( 'not_yet_approved' ) ;
#229 = SECURITY_CLASSIFICATION ( '', '', #65 ) ;
#230 = APPROVAL_DATE_TIME ( #226, #263 ) ;
#231 = PERSON_AND_ORGANIZATION ( #84, #223 ) ;
#232 = CARTESIAN_POINT ( 'NONE',  ( 1.209484614510994631E-14, -4.242300954899669568E-16, 3.464101615137788581 ) ) ;
#233 = AXIS2_PLACEMENT_3D ( 'NONE', #225, #156, #237 ) ;
#234 = LOCAL_TIME ( 9, 28, 19.00000000000000000, #128 ) ;
#235 = AXIS2_PLACEMENT_3D ( 'NONE', #17, #194, #175 ) ;
#236 = DIRECTION ( 'NONE',  ( 4.275831445896958607E-31, 1.000000000000000000, 1.224646799147353207E-16 ) ) ;
#237 = DIRECTION ( 'NONE',  ( 4.275831445896958607E-31, 1.000000000000000000, 1.224646799147353454E-16 ) ) ;
#238 = VECTOR ( 'NONE', #173, 1000.000000000000114 ) ;
#239 = MECHANICAL_CONTEXT ( 'NONE', #191, 'mechanical' ) ;
#240 = VERTEX_POINT ( 'NONE', #74 ) ;
#241 = CARTESIAN_POINT ( 'NONE',  ( 2.565498867538173763E-30, 5.999999999999996447, 7.347880794884115792E-16 ) ) ;
#242 = VERTEX_POINT ( 'NONE', #117 ) ;
#243 = PLANE ( 'NONE',  #47 ) ;
#244 = DIRECTION ( 'NONE',  ( -3.491481338843133355E-15, 1.224646799147353207E-16, -1.000000000000000000 ) ) ;
#245 = AXIS2_PLACEMENT_3D ( 'NONE', #4, #92, #142 ) ;
#246 = AXIS2_PLACEMENT_3D ( 'NONE', #49, #186, #274 ) ;
#247 = CARTESIAN_POINT ( 'NONE',  ( 1.209484614510994631E-14, -4.242300954899669568E-16, 3.464101615137788581 ) ) ;
#248 = MANIFOLD_SOLID_BREP ( 'Corps-Déplacer/Copier1[1]', #107 ) ;
#249 = FACE_OUTER_BOUND ( 'NONE', #103, .T. ) ;
#250 = PERSON_AND_ORGANIZATION ( #84, #223 ) ;
#251 = FACE_OUTER_BOUND ( 'NONE', #138, .T. ) ;
#252 = APPROVAL_STATUS ( 'not_yet_approved' ) ;
#253 = PERSON_AND_ORGANIZATION ( #84, #223 ) ;
#254 = EDGE_CURVE ( 'NONE', #189, #163, #8, .T. ) ;
#255 = DIRECTION ( 'NONE',  ( 5.135813185032636532E-31, 1.000000000000000000, 1.445602896647341382E-16 ) ) ;
#256 = APPROVAL_DATE_TIME ( #171, #64 ) ;
#257 = CARTESIAN_POINT ( 'NONE',  ( 1.209484614510994473E-14, -5.999999999999991118, 3.464101615137787693 ) ) ;
#258 = DIRECTION ( 'NONE',  ( -3.491481338843133355E-15, 1.224646799147353207E-16, -1.000000000000000000 ) ) ;
#259 = CONICAL_SURFACE ( 'NONE', #36, 5.999999999999991118, 1.047197551196592968 ) ;
#260 = ADVANCED_FACE ( 'NONE', ( #3 ), #243, .F. ) ;
#261 = PLANE ( 'NONE',  #235 ) ;
#262 = CIRCLE ( 'NONE', #16, 6.000000000000001776 ) ;
#263 = APPROVAL ( #228, 'UNSPECIFIED' ) ;
#264 = LOCAL_TIME ( 9, 28, 19.00000000000000000, #168 ) ;
#265 = VERTEX_POINT ( 'NONE', #33 ) ;
#266 = DIRECTION ( 'NONE',  ( 0.0000000000000000000, 0.0000000000000000000, 1.000000000000000000 ) ) ;
#267 = DIRECTION ( 'NONE',  ( -3.491481338843133355E-15, 1.224646799147353207E-16, -1.000000000000000000 ) ) ;
#268 = ORIENTED_EDGE ( 'NONE', *, *, #162, .F. ) ;
#269 = EDGE_CURVE ( 'NONE', #163, #265, #126, .T. ) ;
#270 = PERSON_AND_ORGANIZATION ( #84, #223 ) ;
#271 = ORIENTED_EDGE ( 'NONE', *, *, #45, .F. ) ;
#272 = CARTESIAN_POINT ( 'NONE',  ( 0.0000000000000000000, 0.0000000000000000000, 0.0000000000000000000 ) ) ;
#273 = EDGE_LOOP ( 'NONE', ( #50, #222, #166 ) ) ;
#274 = DIRECTION ( 'NONE',  ( 5.135813185032636532E-31, 1.000000000000000000, 1.445602896647341382E-16 ) ) ;
#275 = ADVANCED_FACE ( 'NONE', ( #46 ), #193, .T. ) ;
#276 = ORIENTED_EDGE ( 'NONE', *, *, #19, .T. ) ;
#277 = APPROVAL_PERSON_ORGANIZATION ( #231, #106, #227 ) ;
#278 = CALENDAR_DATE ( 2021, 2, 9 ) ;
#279 = DIRECTION ( 'NONE',  ( -3.491481338843133355E-15, 1.224646799147353207E-16, -1.000000000000000000 ) ) ;
#280 = DATE_AND_TIME ( #100, #264 ) ;
#281 = PERSON_AND_ORGANIZATION_ROLE ( 'classification_officer' ) ;
#282 = AXIS2_PLACEMENT_3D ( 'NONE', #179, #266, #157 ) ;
#283 = FACE_OUTER_BOUND ( 'NONE', #273, .T. ) ;
#284 = EDGE_CURVE ( 'NONE', #242, #189, #136, .T. ) ;
#285 = CC_DESIGN_PERSON_AND_ORGANIZATION_ASSIGNMENT ( #253, #281, ( #229 ) ) ;
#286 = CARTESIAN_POINT ( 'NONE',  ( 1.209484614510994631E-14, -4.242300954899669568E-16, 3.464101615137788581 ) ) ;
#287 = CC_DESIGN_APPROVAL ( #106, ( #165 ) ) ;
ENDSEC;
END-ISO-10303-21;
