ISO-10303-21;
HEADER;
FILE_DESCRIPTION (( 'STEP AP203' ),
    '1' );
FILE_NAME ('43239.step',
    '2021-09-02T07:28:17',
    ( '' ),
    ( '' ),
    'SwSTEP 2.0',
    'SolidWorks 2019',
    '' );
FILE_SCHEMA (( 'CONFIG_CONTROL_DESIGN' ));
ENDSEC;

DATA;
#1 = CYLINDRICAL_SURFACE ( 'NONE', #75, 3.999999999999996447 ) ;
#2 = AXIS2_PLACEMENT_3D ( 'NONE', #182, #199, #266 ) ;
#3 = DIRECTION ( 'NONE',  ( 0.0000000000000000000, 1.000000000000000000, 0.0000000000000000000 ) ) ;
#4 =( NAMED_UNIT ( * ) PLANE_ANGLE_UNIT ( ) SI_UNIT ( $, .RADIAN. ) );
#5 = PERSON_AND_ORGANIZATION ( #169, #284 ) ;
#6 = LOCAL_TIME ( 9, 28, 17.00000000000000000, #76 ) ;
#7 = COORDINATED_UNIVERSAL_TIME_OFFSET ( 1, 0, .AHEAD. ) ;
#8 = CC_DESIGN_PERSON_AND_ORGANIZATION_ASSIGNMENT ( #116, #188, ( #70 ) ) ;
#9 = FACE_OUTER_BOUND ( 'NONE', #192, .T. ) ;
#10 = DATE_TIME_ROLE ( 'creation_date' ) ;
#11 = AXIS2_PLACEMENT_3D ( 'NONE', #176, #63, #243 ) ;
#12 = COORDINATED_UNIVERSAL_TIME_OFFSET ( 1, 0, .AHEAD. ) ;
#13 = ORIENTED_EDGE ( 'NONE', *, *, #281, .F. ) ;
#14 = ORIENTED_EDGE ( 'NONE', *, *, #251, .T. ) ;
#15 = VERTEX_POINT ( 'NONE', #17 ) ;
#16 = DIRECTION ( 'NONE',  ( -3.491481338843133355E-15, 1.224646799147353207E-16, -1.000000000000000000 ) ) ;
#17 = CARTESIAN_POINT ( 'NONE',  ( 2.199633243471174140E-13, 3.199999999999993072, 63.00000000000000000 ) ) ;
#18 = ADVANCED_FACE ( 'NONE', ( #216 ), #206, .T. ) ;
#19 = LOCAL_TIME ( 9, 28, 17.00000000000000000, #159 ) ;
#20 = DIRECTION ( 'NONE',  ( -3.491481338843133355E-15, 1.224646799147353207E-16, -1.000000000000000000 ) ) ;
#21 = FACE_OUTER_BOUND ( 'NONE', #62, .T. ) ;
#22 = CARTESIAN_POINT ( 'NONE',  ( 2.199633243471174140E-13, -7.715274834628325378E-15, 63.00000000000000000 ) ) ;
#23 = CARTESIAN_POINT ( 'NONE',  ( 8.063230763406632450E-15, 3.999999999999993339, 2.309401076758526017 ) ) ;
#24 = AXIS2_PLACEMENT_3D ( 'NONE', #221, #222, #261 ) ;
#25 = EDGE_CURVE ( 'NONE', #255, #126, #34, .T. ) ;
#26 = FACE_OUTER_BOUND ( 'NONE', #217, .T. ) ;
#27 = COORDINATED_UNIVERSAL_TIME_OFFSET ( 1, 0, .AHEAD. ) ;
#28 = ORIENTED_EDGE ( 'NONE', *, *, #97, .F. ) ;
#29 = CIRCLE ( 'NONE', #24, 3.999999999999993339 ) ;
#30 = CARTESIAN_POINT ( 'NONE',  ( 0.0000000000000000000, 0.0000000000000000000, 0.0000000000000000000 ) ) ;
#31 = APPROVAL_DATE_TIME ( #143, #50 ) ;
#32 = DATE_TIME_ROLE ( 'classification_date' ) ;
#33 = VECTOR ( 'NONE', #262, 1000.000000000000227 ) ;
#34 = LINE ( 'NONE', #125, #235 ) ;
#35 = ORIENTED_EDGE ( 'NONE', *, *, #240, .F. ) ;
#36 = ORIENTED_EDGE ( 'NONE', *, *, #137, .T. ) ;
#37 = CC_DESIGN_APPROVAL ( #50, ( #197 ) ) ;
#38 = ORIENTED_EDGE ( 'NONE', *, *, #181, .F. ) ;
#39 = CARTESIAN_POINT ( 'NONE',  ( 8.063230763406630872E-15, -2.828200636599779712E-16, 2.309401076758525573 ) ) ;
#40 = APPROVAL ( #209, 'UNSPECIFIED' ) ;
#41 = CARTESIAN_POINT ( 'NONE',  ( 2.199633243471174140E-13, 3.199999999999993072, 63.00000000000000000 ) ) ;
#42 = LOCAL_TIME ( 9, 28, 17.00000000000000000, #12 ) ;
#43 = DIRECTION ( 'NONE',  ( 0.0000000000000000000, 1.000000000000000000, 0.0000000000000000000 ) ) ;
#44 = CARTESIAN_POINT ( 'NONE',  ( 2.199633243471174140E-13, -7.715274834628325378E-15, 63.00000000000000000 ) ) ;
#45 = PLANE ( 'NONE',  #11 ) ;
#46 = EDGE_CURVE ( 'NONE', #101, #232, #270, .T. ) ;
#47 = DIRECTION ( 'NONE',  ( -3.491481338843133355E-15, 1.224646799147353207E-16, -1.000000000000000000 ) ) ;
#48 = AXIS2_PLACEMENT_3D ( 'NONE', #287, #68, #283 ) ;
#49 = PERSON_AND_ORGANIZATION_ROLE ( 'creator' ) ;
#50 = APPROVAL ( #92, 'UNSPECIFIED' ) ;
#51 = CALENDAR_DATE ( 2021, 2, 9 ) ;
#52 = CARTESIAN_POINT ( 'NONE',  ( 2.203552113228445614E-13, -3.200000000000008615, 63.00000000000000000 ) ) ;
#53 = CALENDAR_DATE ( 2021, 2, 9 ) ;
#54 = DATE_AND_TIME ( #247, #246 ) ;
#55 = EDGE_LOOP ( 'NONE', ( #36, #174, #38, #35 ) ) ;
#56 = CONICAL_SURFACE ( 'NONE', #189, 3.200000000000001066, 0.7853981633974512766 ) ;
#57 = MANIFOLD_SOLID_BREP ( 'Corps-Déplacer/Copier1[2]', #61 ) ;
#58 = CC_DESIGN_DATE_AND_TIME_ASSIGNMENT ( #245, #10, ( #268 ) ) ;
#59 = ORIENTED_EDGE ( 'NONE', *, *, #137, .F. ) ;
#60 = CARTESIAN_POINT ( 'NONE',  ( 8.063230763406630872E-15, -2.828200636599779712E-16, 2.309401076758525573 ) ) ;
#61 = CLOSED_SHELL ( 'NONE', ( #18, #71, #167 ) ) ;
#62 = EDGE_LOOP ( 'NONE', ( #282, #14, #120, #280 ) ) ;
#63 = DIRECTION ( 'NONE',  ( 3.491481338843133355E-15, -1.224646799147353207E-16, 1.000000000000000000 ) ) ;
#64 = EDGE_CURVE ( 'NONE', #126, #227, #95, .T. ) ;
#65 = DIRECTION ( 'NONE',  ( 3.491481338843133355E-15, -1.224646799147353207E-16, 1.000000000000000000 ) ) ;
#66 = CARTESIAN_POINT ( 'NONE',  ( 8.553089483065573042E-15, 3.999999999999993339, 2.309401076758526017 ) ) ;
#67 = DIRECTION ( 'NONE',  ( 1.745740669421581074E-15, -0.8660254037844362651, 0.5000000000000041078 ) ) ;
#68 = DIRECTION ( 'NONE',  ( -3.491481338843133355E-15, 1.224646799147353207E-16, -1.000000000000000000 ) ) ;
#69 = PERSON_AND_ORGANIZATION_ROLE ( 'creator' ) ;
#70 = SECURITY_CLASSIFICATION ( '', '', #271 ) ;
#71 = ADVANCED_FACE ( 'NONE', ( #279 ), #252, .T. ) ;
#72 = CALENDAR_DATE ( 2021, 2, 9 ) ;
#73 =( NAMED_UNIT ( * ) SI_UNIT ( $, .STERADIAN. ) SOLID_ANGLE_UNIT ( ) );
#74 = PERSON_AND_ORGANIZATION ( #169, #284 ) ;
#75 = AXIS2_PLACEMENT_3D ( 'NONE', #156, #180, #242 ) ;
#76 = COORDINATED_UNIVERSAL_TIME_OFFSET ( 1, 0, .AHEAD. ) ;
#77 = DESIGN_CONTEXT ( 'detailed design', #163, 'design' ) ;
#78 = VERTEX_POINT ( 'NONE', #256 ) ;
#79 = DIRECTION ( 'NONE',  ( 3.851859888774478275E-31, 1.000000000000000000, 1.084202172485506283E-16 ) ) ;
#80 = ADVANCED_FACE ( 'NONE', ( #233 ), #241, .F. ) ;
#81 = CC_DESIGN_APPROVAL ( #40, ( #70 ) ) ;
#82 = DIRECTION ( 'NONE',  ( 3.491481338843133355E-15, -1.224646799147353207E-16, 1.000000000000000000 ) ) ;
#83 = ORIENTED_EDGE ( 'NONE', *, *, #46, .T. ) ;
#84 = EDGE_LOOP ( 'NONE', ( #13, #195, #99, #211 ) ) ;
#85 = DIRECTION ( 'NONE',  ( -2.468850131082257455E-15, 0.7071067811865497932, -0.7071067811865453523 ) ) ;
#86 = LINE ( 'NONE', #41, #91 ) ;
#87 = DIRECTION ( 'NONE',  ( -3.491481338843133355E-15, 1.224646799147353207E-16, -1.000000000000000000 ) ) ;
#88 = DIRECTION ( 'NONE',  ( -3.491481338843133355E-15, 1.224646799147353207E-16, -1.000000000000000000 ) ) ;
#89 = DIRECTION ( 'NONE',  ( -3.491481338843133355E-15, 1.224646799147353207E-16, -1.000000000000000000 ) ) ;
#90 = CC_DESIGN_PERSON_AND_ORGANIZATION_ASSIGNMENT ( #229, #94, ( #197 ) ) ;
#91 = VECTOR ( 'NONE', #85, 1000.000000000000114 ) ;
#92 = APPROVAL_STATUS ( 'not_yet_approved' ) ;
#93 =( LENGTH_UNIT ( ) NAMED_UNIT ( * ) SI_UNIT ( .MILLI., .METRE. ) );
#94 = PERSON_AND_ORGANIZATION_ROLE ( 'design_supplier' ) ;
#95 = CIRCLE ( 'NONE', #135, 3.999999999999993339 ) ;
#96 = DATE_AND_TIME ( #72, #6 ) ;
#97 = EDGE_CURVE ( 'NONE', #227, #126, #29, .T. ) ;
#98 = ORIENTED_EDGE ( 'NONE', *, *, #212, .F. ) ;
#99 = ORIENTED_EDGE ( 'NONE', *, *, #240, .T. ) ;
#100 = CIRCLE ( 'NONE', #223, 3.200000000000001066 ) ;
#101 = VERTEX_POINT ( 'NONE', #66 ) ;
#102 = APPLICATION_CONTEXT ( 'configuration controlled 3d designs of mechanical parts and assemblies' ) ;
#103 = EDGE_LOOP ( 'NONE', ( #236, #128, #83 ) ) ;
#104 = EDGE_CURVE ( 'NONE', #127, #232, #265, .T. ) ;
#105 = PRODUCT_DEFINITION_SHAPE ( 'NONE', 'NONE',  #268 ) ;
#106 = EDGE_LOOP ( 'NONE', ( #98, #214 ) ) ;
#107 = AXIS2_PLACEMENT_3D ( 'NONE', #149, #82, #171 ) ;
#108 = LINE ( 'NONE', #285, #33 ) ;
#109 = FACE_OUTER_BOUND ( 'NONE', #84, .T. ) ;
#110 = ADVANCED_FACE ( 'NONE', ( #109 ), #131, .T. ) ;
#111 = FACE_OUTER_BOUND ( 'NONE', #106, .T. ) ;
#112 = VECTOR ( 'NONE', #162, 1000.000000000000114 ) ;
#113 = DIRECTION ( 'NONE',  ( 4.275831445896958607E-31, 1.000000000000000000, 1.224646799147353207E-16 ) ) ;
#114 = DIRECTION ( 'NONE',  ( 4.275831445896957731E-31, 1.000000000000000000, 1.224646799147353207E-16 ) ) ;
#115 = CC_DESIGN_PERSON_AND_ORGANIZATION_ASSIGNMENT ( #5, #69, ( #268 ) ) ;
#116 = PERSON_AND_ORGANIZATION ( #169, #284 ) ;
#117 = APPROVAL_DATE_TIME ( #205, #40 ) ;
#118 = CARTESIAN_POINT ( 'NONE',  ( 0.0000000000000000000, 0.0000000000000000000, 0.0000000000000000000 ) ) ;
#119 = AXIS2_PLACEMENT_3D ( 'NONE', #60, #148, #277 ) ;
#120 = ORIENTED_EDGE ( 'NONE', *, *, #258, .T. ) ;
#121 = DIRECTION ( 'NONE',  ( 0.0000000000000000000, 0.0000000000000000000, 1.000000000000000000 ) ) ;
#122 = PERSON_AND_ORGANIZATION ( #169, #284 ) ;
#123 = APPROVAL_ROLE ( '' ) ;
#124 = AXIS2_PLACEMENT_3D ( 'NONE', #200, #65, #132 ) ;
#125 = CARTESIAN_POINT ( 'NONE',  ( 4.898587196589392121E-16, -3.999999999999996447, -4.898587196589424662E-16 ) ) ;
#126 = VERTEX_POINT ( 'NONE', #153 ) ;
#127 = VERTEX_POINT ( 'NONE', #152 ) ;
#128 = ORIENTED_EDGE ( 'NONE', *, *, #273, .T. ) ;
#129 = ORIENTED_EDGE ( 'NONE', *, *, #212, .T. ) ;
#130 = CARTESIAN_POINT ( 'NONE',  ( 1.710332578358781691E-30, 3.999999999999996447, 4.898587196589408884E-16 ) ) ;
#131 = CONICAL_SURFACE ( 'NONE', #264, 3.200000000000001066, 0.7853981633974512766 ) ;
#132 = DIRECTION ( 'NONE',  ( -4.275831445896958607E-31, -1.000000000000000000, -1.224646799147353207E-16 ) ) ;
#133 = DIRECTION ( 'NONE',  ( 0.0000000000000000000, 1.000000000000000000, 0.0000000000000000000 ) ) ;
#134 = FACE_OUTER_BOUND ( 'NONE', #55, .T. ) ;
#135 = AXIS2_PLACEMENT_3D ( 'NONE', #234, #16, #79 ) ;
#136 = DIRECTION ( 'NONE',  ( 0.0000000000000000000, 1.000000000000000000, 0.0000000000000000000 ) ) ;
#137 = EDGE_CURVE ( 'NONE', #15, #151, #228, .T. ) ;
#138 = SHAPE_DEFINITION_REPRESENTATION ( #105, #183 ) ;
#139 = DIRECTION ( 'NONE',  ( 1.000000000000000000, 0.0000000000000000000, 0.0000000000000000000 ) ) ;
#140 = PRODUCT_RELATED_PRODUCT_CATEGORY ( 'detail', '', ( #275 ) ) ;
#141 = APPLICATION_PROTOCOL_DEFINITION ( 'international standard', 'config_control_design', 1994, #102 ) ;
#142 = APPROVAL_PERSON_ORGANIZATION ( #74, #218, #226 ) ;
#143 = DATE_AND_TIME ( #53, #184 ) ;
#144 = PERSON_AND_ORGANIZATION ( #169, #284 ) ;
#145 = CC_DESIGN_PERSON_AND_ORGANIZATION_ASSIGNMENT ( #122, #49, ( #197 ) ) ;
#146 = DIRECTION ( 'NONE',  ( 3.491481338843133355E-15, -1.224646799147353207E-16, 1.000000000000000000 ) ) ;
#147 = AXIS2_PLACEMENT_3D ( 'NONE', #44, #202, #133 ) ;
#148 = DIRECTION ( 'NONE',  ( -3.491481338843133355E-15, 1.224646799147353207E-16, -1.000000000000000000 ) ) ;
#149 = CARTESIAN_POINT ( 'NONE',  ( 8.063230763406630872E-15, -2.828200636599779712E-16, 2.309401076758525573 ) ) ;
#150 = EDGE_LOOP ( 'NONE', ( #59, #166 ) ) ;
#151 = VERTEX_POINT ( 'NONE', #220 ) ;
#152 = CARTESIAN_POINT ( 'NONE',  ( 0.0000000000000000000, 0.0000000000000000000, 0.0000000000000000000 ) ) ;
#153 = CARTESIAN_POINT ( 'NONE',  ( 1.131065437393836702E-13, -3.999999999999993339, 2.309401076758525129 ) ) ;
#154 = VECTOR ( 'NONE', #20, 1000.000000000000000 ) ;
#155 = CARTESIAN_POINT ( 'NONE',  ( 8.063230763406629294E-15, -3.999999999999993339, 2.309401076758525129 ) ) ;
#156 = CARTESIAN_POINT ( 'NONE',  ( 0.0000000000000000000, 0.0000000000000000000, 0.0000000000000000000 ) ) ;
#157 = CARTESIAN_POINT ( 'NONE',  ( 8.063230763406629294E-15, -3.999999999999993339, 2.309401076758525129 ) ) ;
#158 = CC_DESIGN_APPROVAL ( #218, ( #268 ) ) ;
#159 = COORDINATED_UNIVERSAL_TIME_OFFSET ( 1, 0, .AHEAD. ) ;
#160 = LINE ( 'NONE', #52, #112 ) ;
#161 = EDGE_CURVE ( 'NONE', #151, #15, #100, .T. ) ;
#162 = DIRECTION ( 'NONE',  ( -2.382254525458708792E-15, -0.7071067811865495711, -0.7071067811865455743 ) ) ;
#163 = APPLICATION_CONTEXT ( 'configuration controlled 3d designs of mechanical parts and assemblies' ) ;
#164 = APPROVAL_STATUS ( 'not_yet_approved' ) ;
#165 = VECTOR ( 'NONE', #67, 1000.000000000000114 ) ;
#166 = ORIENTED_EDGE ( 'NONE', *, *, #161, .F. ) ;
#167 = ADVANCED_FACE ( 'NONE', ( #111 ), #237, .T. ) ;
#168 = ORIENTED_EDGE ( 'NONE', *, *, #273, .F. ) ;
#169 = PERSON ( 'UNSPECIFIED', 'UNSPECIFIED', 'UNSPECIFIED', ('UNSPECIFIED'), ('UNSPECIFIED'), ('UNSPECIFIED') ) ;
#170 = APPROVAL_PERSON_ORGANIZATION ( #190, #40, #123 ) ;
#171 = DIRECTION ( 'NONE',  ( -3.851859888774478275E-31, -1.000000000000000000, -1.084202172485506283E-16 ) ) ;
#172 = ADVANCED_FACE ( 'NONE', ( #21 ), #1, .T. ) ;
#173 = ORIENTED_EDGE ( 'NONE', *, *, #258, .F. ) ;
#174 = ORIENTED_EDGE ( 'NONE', *, *, #281, .T. ) ;
#175 = AXIS2_PLACEMENT_3D ( 'NONE', #118, #272, #114 ) ;
#176 = CARTESIAN_POINT ( 'NONE',  ( 8.063230763406629294E-15, -2.503857664561960479E-16, 2.309401076758525129 ) ) ;
#177 = CARTESIAN_POINT ( 'NONE',  ( 2.199633243471174140E-13, 2.399615652258961499E-32, 63.00000000000000000 ) ) ;
#178 = CARTESIAN_POINT ( 'NONE',  ( 2.199633243471174140E-13, -7.715274834628325378E-15, 63.00000000000000000 ) ) ;
#179 = AXIS2_PLACEMENT_3D ( 'NONE', #219, #47, #136 ) ;
#180 = DIRECTION ( 'NONE',  ( -3.491481338843133355E-15, 1.224646799147353207E-16, -1.000000000000000000 ) ) ;
#181 = EDGE_CURVE ( 'NONE', #78, #255, #260, .T. ) ;
#182 = CARTESIAN_POINT ( 'NONE',  ( 2.171701392760429073E-13, -7.617303090696536944E-15, 62.20000000000000284 ) ) ;
#183 = ADVANCED_BREP_SHAPE_REPRESENTATION ( '43239', ( #248, #57, #210 ), #201 ) ;
#184 = LOCAL_TIME ( 9, 28, 17.00000000000000000, #27 ) ;
#185 = CALENDAR_DATE ( 2021, 2, 9 ) ;
#186 = ADVANCED_FACE ( 'NONE', ( #26 ), #45, .F. ) ;
#187 = APPLICATION_PROTOCOL_DEFINITION ( 'international standard', 'config_control_design', 1994, #163 ) ;
#188 = PERSON_AND_ORGANIZATION_ROLE ( 'classification_officer' ) ;
#189 = AXIS2_PLACEMENT_3D ( 'NONE', #178, #263, #3 ) ;
#190 = PERSON_AND_ORGANIZATION ( #169, #284 ) ;
#191 = DIRECTION ( 'NONE',  ( -3.491481338843133355E-15, 1.224646799147353207E-16, -1.000000000000000000 ) ) ;
#192 = EDGE_LOOP ( 'NONE', ( #259, #213, #28, #173 ) ) ;
#193 = CC_DESIGN_DATE_AND_TIME_ASSIGNMENT ( #96, #32, ( #70 ) ) ;
#194 = ORIENTED_EDGE ( 'NONE', *, *, #104, .T. ) ;
#195 = ORIENTED_EDGE ( 'NONE', *, *, #161, .T. ) ;
#196 = CARTESIAN_POINT ( 'NONE',  ( 2.199633243471174140E-13, -7.715274834628325378E-15, 63.00000000000000000 ) ) ;
#197 = PRODUCT_DEFINITION_FORMATION_WITH_SPECIFIED_SOURCE ( 'ANY', '', #275, .NOT_KNOWN. ) ;
#198 = CARTESIAN_POINT ( 'NONE',  ( 1.131065437393834683E-13, -4.000000000000008882, 62.20000000000000284 ) ) ;
#199 = DIRECTION ( 'NONE',  ( -3.491481338843133355E-15, 1.224646799147353207E-16, -1.000000000000000000 ) ) ;
#200 = CARTESIAN_POINT ( 'NONE',  ( 8.063230763406629294E-15, -2.503857664561960479E-16, 2.309401076758525129 ) ) ;
#201 =( GEOMETRIC_REPRESENTATION_CONTEXT ( 3 ) GLOBAL_UNCERTAINTY_ASSIGNED_CONTEXT ( ( #254 ) ) GLOBAL_UNIT_ASSIGNED_CONTEXT ( ( #93, #4, #73 ) ) REPRESENTATION_CONTEXT ( 'NONE', 'WORKASPACE' ) );
#202 = DIRECTION ( 'NONE',  ( -3.491481338843133355E-15, 1.224646799147353207E-16, -1.000000000000000000 ) ) ;
#203 = CYLINDRICAL_SURFACE ( 'NONE', #175, 3.999999999999996447 ) ;
#204 = APPROVAL_ROLE ( '' ) ;
#205 = DATE_AND_TIME ( #51, #42 ) ;
#206 = CONICAL_SURFACE ( 'NONE', #230, 3.999999999999993339, 1.047197551196592746 ) ;
#207 = PERSON_AND_ORGANIZATION_ROLE ( 'design_owner' ) ;
#208 = CC_DESIGN_PERSON_AND_ORGANIZATION_ASSIGNMENT ( #144, #207, ( #275 ) ) ;
#209 = APPROVAL_STATUS ( 'not_yet_approved' ) ;
#210 = AXIS2_PLACEMENT_3D ( 'NONE', #30, #121, #139 ) ;
#211 = ORIENTED_EDGE ( 'NONE', *, *, #251, .F. ) ;
#212 = EDGE_CURVE ( 'NONE', #232, #101, #244, .T. ) ;
#213 = ORIENTED_EDGE ( 'NONE', *, *, #25, .T. ) ;
#214 = ORIENTED_EDGE ( 'NONE', *, *, #46, .F. ) ;
#215 = APPROVAL_PERSON_ORGANIZATION ( #274, #50, #204 ) ;
#216 = FACE_OUTER_BOUND ( 'NONE', #103, .T. ) ;
#217 = EDGE_LOOP ( 'NONE', ( #257, #276 ) ) ;
#218 = APPROVAL ( #164, 'UNSPECIFIED' ) ;
#219 = CARTESIAN_POINT ( 'NONE',  ( 2.171701392760429073E-13, -7.617303090696536944E-15, 62.20000000000000284 ) ) ;
#220 = CARTESIAN_POINT ( 'NONE',  ( 2.190076046592732173E-13, -3.200000000000008615, 63.00000000000000000 ) ) ;
#221 = CARTESIAN_POINT ( 'NONE',  ( 8.063230763406630872E-15, -2.828200636599779712E-16, 2.309401076758525573 ) ) ;
#222 = DIRECTION ( 'NONE',  ( -3.491481338843133355E-15, 1.224646799147353207E-16, -1.000000000000000000 ) ) ;
#223 = AXIS2_PLACEMENT_3D ( 'NONE', #22, #89, #43 ) ;
#224 = LINE ( 'NONE', #130, #154 ) ;
#225 = ADVANCED_FACE ( 'NONE', ( #134 ), #56, .T. ) ;
#226 = APPROVAL_ROLE ( '' ) ;
#227 = VERTEX_POINT ( 'NONE', #23 ) ;
#228 = CIRCLE ( 'NONE', #147, 3.200000000000001066 ) ;
#229 = PERSON_AND_ORGANIZATION ( #169, #284 ) ;
#230 = AXIS2_PLACEMENT_3D ( 'NONE', #39, #146, #231 ) ;
#231 = DIRECTION ( 'NONE',  ( -3.851859888774478275E-31, -1.000000000000000000, -1.084202172485506283E-16 ) ) ;
#232 = VERTEX_POINT ( 'NONE', #157 ) ;
#233 = FACE_OUTER_BOUND ( 'NONE', #150, .T. ) ;
#234 = CARTESIAN_POINT ( 'NONE',  ( 8.063230763406630872E-15, -2.828200636599779712E-16, 2.309401076758525573 ) ) ;
#235 = VECTOR ( 'NONE', #191, 1000.000000000000000 ) ;
#236 = ORIENTED_EDGE ( 'NONE', *, *, #104, .F. ) ;
#237 = PLANE ( 'NONE',  #124 ) ;
#238 = DIRECTION ( 'NONE',  ( 0.0000000000000000000, 1.000000000000000000, 0.0000000000000000000 ) ) ;
#239 = CC_DESIGN_SECURITY_CLASSIFICATION ( #70, ( #197 ) ) ;
#240 = EDGE_CURVE ( 'NONE', #15, #78, #86, .T. ) ;
#241 = PLANE ( 'NONE',  #269 ) ;
#242 = DIRECTION ( 'NONE',  ( 4.275831445896957731E-31, 1.000000000000000000, 1.224646799147353207E-16 ) ) ;
#243 = DIRECTION ( 'NONE',  ( -4.275831445896958607E-31, -1.000000000000000000, -1.224646799147353207E-16 ) ) ;
#244 = CIRCLE ( 'NONE', #48, 3.999999999999993339 ) ;
#245 = DATE_AND_TIME ( #185, #19 ) ;
#246 = LOCAL_TIME ( 9, 28, 17.00000000000000000, #7 ) ;
#247 = CALENDAR_DATE ( 2021, 2, 9 ) ;
#248 = MANIFOLD_SOLID_BREP ( 'Corps-Déplacer/Copier1[1]', #253 ) ;
#249 = MECHANICAL_CONTEXT ( 'NONE', #102, 'mechanical' ) ;
#250 = EDGE_LOOP ( 'NONE', ( #168, #194, #129 ) ) ;
#251 = EDGE_CURVE ( 'NONE', #255, #78, #278, .T. ) ;
#252 = CONICAL_SURFACE ( 'NONE', #107, 3.999999999999993339, 1.047197551196592746 ) ;
#253 = CLOSED_SHELL ( 'NONE', ( #225, #286, #186, #172, #110, #80 ) ) ;
#254 = UNCERTAINTY_MEASURE_WITH_UNIT (LENGTH_MEASURE( 1.000000000000000082E-05 ), #93, 'distance_accuracy_value', 'NONE');
#255 = VERTEX_POINT ( 'NONE', #198 ) ;
#256 = CARTESIAN_POINT ( 'NONE',  ( 2.171701392760429073E-13, 3.999999999999993339, 62.20000000000000284 ) ) ;
#257 = ORIENTED_EDGE ( 'NONE', *, *, #97, .T. ) ;
#258 = EDGE_CURVE ( 'NONE', #78, #227, #224, .T. ) ;
#259 = ORIENTED_EDGE ( 'NONE', *, *, #181, .T. ) ;
#260 = CIRCLE ( 'NONE', #2, 4.000000000000000888 ) ;
#261 = DIRECTION ( 'NONE',  ( 3.851859888774478275E-31, 1.000000000000000000, 1.084202172485506283E-16 ) ) ;
#262 = DIRECTION ( 'NONE',  ( 1.851798193294072678E-15, 0.8660254037844361541, 0.5000000000000044409 ) ) ;
#263 = DIRECTION ( 'NONE',  ( -3.491481338843133355E-15, 1.224646799147353207E-16, -1.000000000000000000 ) ) ;
#264 = AXIS2_PLACEMENT_3D ( 'NONE', #196, #88, #238 ) ;
#265 = LINE ( 'NONE', #155, #165 ) ;
#266 = DIRECTION ( 'NONE',  ( 0.0000000000000000000, 1.000000000000000000, 0.0000000000000000000 ) ) ;
#267 = APPROVAL_DATE_TIME ( #54, #218 ) ;
#268 = PRODUCT_DEFINITION ( 'UNKNOWN', '', #197, #77 ) ;
#269 = AXIS2_PLACEMENT_3D ( 'NONE', #177, #87, #113 ) ;
#270 = CIRCLE ( 'NONE', #119, 3.999999999999993339 ) ;
#271 = SECURITY_CLASSIFICATION_LEVEL ( 'unclassified' ) ;
#272 = DIRECTION ( 'NONE',  ( -3.491481338843133355E-15, 1.224646799147353207E-16, -1.000000000000000000 ) ) ;
#273 = EDGE_CURVE ( 'NONE', #127, #101, #108, .T. ) ;
#274 = PERSON_AND_ORGANIZATION ( #169, #284 ) ;
#275 = PRODUCT ( '43239', '43239', '', ( #249 ) ) ;
#276 = ORIENTED_EDGE ( 'NONE', *, *, #64, .T. ) ;
#277 = DIRECTION ( 'NONE',  ( 3.851859888774478275E-31, 1.000000000000000000, 1.084202172485506283E-16 ) ) ;
#278 = CIRCLE ( 'NONE', #179, 4.000000000000000888 ) ;
#279 = FACE_OUTER_BOUND ( 'NONE', #250, .T. ) ;
#280 = ORIENTED_EDGE ( 'NONE', *, *, #64, .F. ) ;
#281 = EDGE_CURVE ( 'NONE', #151, #255, #160, .T. ) ;
#282 = ORIENTED_EDGE ( 'NONE', *, *, #25, .F. ) ;
#283 = DIRECTION ( 'NONE',  ( 3.851859888774478275E-31, 1.000000000000000000, 1.084202172485506283E-16 ) ) ;
#284 = ORGANIZATION ( 'UNSPECIFIED', 'UNSPECIFIED', '' ) ;
#285 = CARTESIAN_POINT ( 'NONE',  ( 8.553089483065573042E-15, 3.999999999999993339, 2.309401076758526017 ) ) ;
#286 = ADVANCED_FACE ( 'NONE', ( #9 ), #203, .T. ) ;
#287 = CARTESIAN_POINT ( 'NONE',  ( 8.063230763406630872E-15, -2.828200636599779712E-16, 2.309401076758525573 ) ) ;
ENDSEC;
END-ISO-10303-21;
