ISO-10303-21;
HEADER;
FILE_DESCRIPTION (( 'STEP AP203' ),
    '1' );
FILE_NAME ('43238.step',
    '2021-09-02T07:28:17',
    ( '' ),
    ( '' ),
    'SwSTEP 2.0',
    'SolidWorks 2019',
    '' );
FILE_SCHEMA (( 'CONFIG_CONTROL_DESIGN' ));
ENDSEC;

DATA;
#1 = VERTEX_POINT ( 'NONE', #67 ) ;
#2 = ADVANCED_FACE ( 'NONE', ( #246 ), #129, .T. ) ;
#3 = COORDINATED_UNIVERSAL_TIME_OFFSET ( 1, 0, .AHEAD. ) ;
#4 = CLOSED_SHELL ( 'NONE', ( #205, #2, #181 ) ) ;
#5 = DIRECTION ( 'NONE',  ( -5.135813185032636532E-31, -1.000000000000000000, -1.445602896647341382E-16 ) ) ;
#6 = DIRECTION ( 'NONE',  ( 0.0000000000000000000, 1.000000000000000000, 0.0000000000000000000 ) ) ;
#7 = DIRECTION ( 'NONE',  ( -4.275831445896958607E-31, -1.000000000000000000, -1.224646799147353207E-16 ) ) ;
#8 = DIRECTION ( 'NONE',  ( -4.275831445896958607E-31, -1.000000000000000000, -1.224646799147353207E-16 ) ) ;
#9 = LINE ( 'NONE', #126, #218 ) ;
#10 = CC_DESIGN_DATE_AND_TIME_ASSIGNMENT ( #192, #234, ( #198 ) ) ;
#11 = CARTESIAN_POINT ( 'NONE',  ( 1.969195475107527212E-13, -6.907007947191071980E-15, 56.39999999999999858 ) ) ;
#12 = APPROVAL_ROLE ( '' ) ;
#13 = AXIS2_PLACEMENT_3D ( 'NONE', #105, #39, #194 ) ;
#14 = CC_DESIGN_SECURITY_CLASSIFICATION ( #64, ( #265 ) ) ;
#15 =( NAMED_UNIT ( * ) SI_UNIT ( $, .STERADIAN. ) SOLID_ANGLE_UNIT ( ) );
#16 = DIRECTION ( 'NONE',  ( -3.491481338843133355E-15, 1.224646799147353207E-16, -1.000000000000000000 ) ) ;
#17 = VERTEX_POINT ( 'NONE', #91 ) ;
#18 = AXIS2_PLACEMENT_3D ( 'NONE', #151, #35, #8 ) ;
#19 = ORIENTED_EDGE ( 'NONE', *, *, #23, .F. ) ;
#20 = CALENDAR_DATE ( 2021, 2, 9 ) ;
#21 = ADVANCED_FACE ( 'NONE', ( #180 ), #271, .F. ) ;
#22 = CONICAL_SURFACE ( 'NONE', #149, 2.999999999999995559, 1.047197551196592746 ) ;
#23 = EDGE_CURVE ( 'NONE', #17, #66, #247, .T. ) ;
#24 = EDGE_LOOP ( 'NONE', ( #116, #109 ) ) ;
#25 = PRODUCT_DEFINITION_SHAPE ( 'NONE', 'NONE',  #198 ) ;
#26 = CALENDAR_DATE ( 2021, 2, 9 ) ;
#27 = SECURITY_CLASSIFICATION_LEVEL ( 'unclassified' ) ;
#28 = ORIENTED_EDGE ( 'NONE', *, *, #44, .F. ) ;
#29 = AXIS2_PLACEMENT_3D ( 'NONE', #58, #252, #216 ) ;
#30 = LINE ( 'NONE', #37, #220 ) ;
#31 = CARTESIAN_POINT ( 'NONE',  ( 6.047423072554972365E-15, -2.999999999999995559, 1.732050807568894069 ) ) ;
#32 = DIRECTION ( 'NONE',  ( -2.468850131082271655E-15, 0.7071067811865455743, -0.7071067811865493491 ) ) ;
#33 = DIRECTION ( 'NONE',  ( -3.491481338843133355E-15, 1.224646799147353207E-16, -1.000000000000000000 ) ) ;
#34 = PRODUCT_RELATED_PRODUCT_CATEGORY ( 'detail', '', ( #285 ) ) ;
#35 = DIRECTION ( 'NONE',  ( 3.491481338843133355E-15, -1.224646799147353207E-16, 1.000000000000000000 ) ) ;
#36 = AXIS2_PLACEMENT_3D ( 'NONE', #95, #248, #123 ) ;
#37 = CARTESIAN_POINT ( 'NONE',  ( 6.414817112299180965E-15, 2.999999999999995559, 1.732050807568894957 ) ) ;
#38 = EDGE_LOOP ( 'NONE', ( #59, #179, #28, #19 ) ) ;
#39 = DIRECTION ( 'NONE',  ( -3.491481338843133355E-15, 1.224646799147353207E-16, -1.000000000000000000 ) ) ;
#40 = ORIENTED_EDGE ( 'NONE', *, *, #281, .F. ) ;
#41 = APPROVAL_STATUS ( 'not_yet_approved' ) ;
#42 = VECTOR ( 'NONE', #182, 1000.000000000000000 ) ;
#43 = APPROVAL_DATE_TIME ( #85, #240 ) ;
#44 = EDGE_CURVE ( 'NONE', #66, #114, #268, .T. ) ;
#45 = ORIENTED_EDGE ( 'NONE', *, *, #227, .T. ) ;
#46 = PERSON_AND_ORGANIZATION ( #154, #69 ) ;
#47 = ORIENTED_EDGE ( 'NONE', *, *, #60, .F. ) ;
#48 = CC_DESIGN_APPROVAL ( #196, ( #64 ) ) ;
#49 = ORIENTED_EDGE ( 'NONE', *, *, #150, .F. ) ;
#50 = CARTESIAN_POINT ( 'NONE',  ( 0.0000000000000000000, 0.0000000000000000000, 0.0000000000000000000 ) ) ;
#51 = APPROVAL ( #41, 'UNSPECIFIED' ) ;
#52 = DIRECTION ( 'NONE',  ( 0.0000000000000000000, 1.000000000000000000, 0.0000000000000000000 ) ) ;
#53 = CC_DESIGN_PERSON_AND_ORGANIZATION_ASSIGNMENT ( #104, #61, ( #198 ) ) ;
#54 = DIRECTION ( 'NONE',  ( 0.0000000000000000000, 1.000000000000000000, 0.0000000000000000000 ) ) ;
#55 = DIRECTION ( 'NONE',  ( -3.491481338843133355E-15, 1.224646799147353207E-16, -1.000000000000000000 ) ) ;
#56 =( LENGTH_UNIT ( ) NAMED_UNIT ( * ) SI_UNIT ( .MILLI., .METRE. ) );
#57 = AXIS2_PLACEMENT_3D ( 'NONE', #50, #273, #251 ) ;
#58 = CARTESIAN_POINT ( 'NONE',  ( 6.047423072554973943E-15, -2.121150477449834784E-16, 1.732050807568894513 ) ) ;
#59 = ORIENTED_EDGE ( 'NONE', *, *, #264, .T. ) ;
#60 = EDGE_CURVE ( 'NONE', #239, #17, #257, .T. ) ;
#61 = PERSON_AND_ORGANIZATION_ROLE ( 'creator' ) ;
#62 = PERSON_AND_ORGANIZATION_ROLE ( 'classification_officer' ) ;
#63 = AXIS2_PLACEMENT_3D ( 'NONE', #70, #250, #54 ) ;
#64 = SECURITY_CLASSIFICATION ( '', '', #27 ) ;
#65 = APPROVAL_DATE_TIME ( #115, #196 ) ;
#66 = VERTEX_POINT ( 'NONE', #127 ) ;
#67 = CARTESIAN_POINT ( 'NONE',  ( 6.047423072554975521E-15, 2.999999999999995559, 1.732050807568894957 ) ) ;
#68 = PERSON_AND_ORGANIZATION ( #154, #69 ) ;
#69 = ORGANIZATION ( 'UNSPECIFIED', 'UNSPECIFIED', '' ) ;
#70 = CARTESIAN_POINT ( 'NONE',  ( 1.990144363140586139E-13, -6.980486755139912911E-15, 57.00000000000000000 ) ) ;
#71 = DIRECTION ( 'NONE',  ( -3.491481338843133355E-15, 1.224646799147353207E-16, -1.000000000000000000 ) ) ;
#72 = CARTESIAN_POINT ( 'NONE',  ( 1.969195475107527212E-13, -6.907007947191071980E-15, 56.39999999999999858 ) ) ;
#73 = LOCAL_TIME ( 9, 28, 17.00000000000000000, #256 ) ;
#74 = CARTESIAN_POINT ( 'NONE',  ( 6.047423072554972365E-15, -2.999999999999995559, 1.732050807568894069 ) ) ;
#75 = DIRECTION ( 'NONE',  ( 5.135813185032636532E-31, 1.000000000000000000, 1.445602896647341382E-16 ) ) ;
#76 = CIRCLE ( 'NONE', #282, 2.999999999999995559 ) ;
#77 = APPROVAL_DATE_TIME ( #261, #51 ) ;
#78 = CYLINDRICAL_SURFACE ( 'NONE', #120, 2.999999999999999112 ) ;
#79 = AXIS2_PLACEMENT_3D ( 'NONE', #11, #272, #121 ) ;
#80 = VERTEX_POINT ( 'NONE', #212 ) ;
#81 = CC_DESIGN_PERSON_AND_ORGANIZATION_ASSIGNMENT ( #221, #62, ( #64 ) ) ;
#82 = DIRECTION ( 'NONE',  ( 0.0000000000000000000, 0.0000000000000000000, 1.000000000000000000 ) ) ;
#83 = VERTEX_POINT ( 'NONE', #165 ) ;
#84 = VECTOR ( 'NONE', #32, 1000.000000000000114 ) ;
#85 = DATE_AND_TIME ( #26, #73 ) ;
#86 = ORIENTED_EDGE ( 'NONE', *, *, #23, .T. ) ;
#87 = PERSON_AND_ORGANIZATION_ROLE ( 'design_supplier' ) ;
#88 = MANIFOLD_SOLID_BREP ( 'Corps-Déplacer/Copier1[2]', #4 ) ;
#89 = ORIENTED_EDGE ( 'NONE', *, *, #253, .T. ) ;
#90 = EDGE_CURVE ( 'NONE', #239, #114, #92, .T. ) ;
#91 = CARTESIAN_POINT ( 'NONE',  ( 1.990144363140586139E-13, 2.399999999999995914, 57.00000000000000000 ) ) ;
#92 = LINE ( 'NONE', #141, #42 ) ;
#93 = CARTESIAN_POINT ( 'NONE',  ( 6.047423072554973943E-15, -2.121150477449834784E-16, 1.732050807568894513 ) ) ;
#94 = VECTOR ( 'NONE', #16, 1000.000000000000000 ) ;
#95 = CARTESIAN_POINT ( 'NONE',  ( 1.990144363140586139E-13, -6.980486755139912911E-15, 57.00000000000000000 ) ) ;
#96 = APPROVAL_PERSON_ORGANIZATION ( #280, #240, #171 ) ;
#97 = FACE_OUTER_BOUND ( 'NONE', #245, .T. ) ;
#98 = PLANE ( 'NONE',  #112 ) ;
#99 = CIRCLE ( 'NONE', #209, 2.999999999999995559 ) ;
#100 =( GEOMETRIC_REPRESENTATION_CONTEXT ( 3 ) GLOBAL_UNCERTAINTY_ASSIGNED_CONTEXT ( ( #177 ) ) GLOBAL_UNIT_ASSIGNED_CONTEXT ( ( #56, #108, #15 ) ) REPRESENTATION_CONTEXT ( 'NONE', 'WORKASPACE' ) );
#101 = ADVANCED_FACE ( 'NONE', ( #97 ), #125, .T. ) ;
#102 = PERSON_AND_ORGANIZATION ( #154, #69 ) ;
#103 = LOCAL_TIME ( 9, 28, 17.00000000000000000, #134 ) ;
#104 = PERSON_AND_ORGANIZATION ( #154, #69 ) ;
#105 = CARTESIAN_POINT ( 'NONE',  ( 1.990144363140586139E-13, -6.980486755139912911E-15, 57.00000000000000000 ) ) ;
#106 = CC_DESIGN_PERSON_AND_ORGANIZATION_ASSIGNMENT ( #214, #130, ( #285 ) ) ;
#107 = ORIENTED_EDGE ( 'NONE', *, *, #160, .T. ) ;
#108 =( NAMED_UNIT ( * ) PLANE_ANGLE_UNIT ( ) SI_UNIT ( $, .RADIAN. ) );
#109 = ORIENTED_EDGE ( 'NONE', *, *, #227, .F. ) ;
#110 = CC_DESIGN_APPROVAL ( #51, ( #198 ) ) ;
#111 = APPROVAL_STATUS ( 'not_yet_approved' ) ;
#112 = AXIS2_PLACEMENT_3D ( 'NONE', #207, #274, #7 ) ;
#113 = CALENDAR_DATE ( 2021, 2, 9 ) ;
#114 = VERTEX_POINT ( 'NONE', #232 ) ;
#115 = DATE_AND_TIME ( #161, #254 ) ;
#116 = ORIENTED_EDGE ( 'NONE', *, *, #276, .F. ) ;
#117 = ADVANCED_FACE ( 'NONE', ( #183 ), #168, .T. ) ;
#118 = EDGE_LOOP ( 'NONE', ( #163, #215, #45 ) ) ;
#119 = CLOSED_SHELL ( 'NONE', ( #210, #117, #21, #258, #101, #146 ) ) ;
#120 = AXIS2_PLACEMENT_3D ( 'NONE', #193, #279, #219 ) ;
#121 = DIRECTION ( 'NONE',  ( 0.0000000000000000000, 1.000000000000000000, 0.0000000000000000000 ) ) ;
#122 = EDGE_CURVE ( 'NONE', #114, #152, #9, .T. ) ;
#123 = DIRECTION ( 'NONE',  ( 0.0000000000000000000, 1.000000000000000000, 0.0000000000000000000 ) ) ;
#124 = DIRECTION ( 'NONE',  ( -3.491481338843133355E-15, 1.224646799147353207E-16, -1.000000000000000000 ) ) ;
#125 = CONICAL_SURFACE ( 'NONE', #36, 2.400000000000003020, 0.7853981633974453924 ) ;
#126 = CARTESIAN_POINT ( 'NONE',  ( 3.673940397442046063E-16, -2.999999999999999112, -3.673940397442071208E-16 ) ) ;
#127 = CARTESIAN_POINT ( 'NONE',  ( 1.969195475107527212E-13, 2.999999999999995559, 56.39999999999999858 ) ) ;
#128 = APPLICATION_CONTEXT ( 'configuration controlled 3d designs of mechanical parts and assemblies' ) ;
#129 = CONICAL_SURFACE ( 'NONE', #236, 2.999999999999995559, 1.047197551196592746 ) ;
#130 = PERSON_AND_ORGANIZATION_ROLE ( 'design_owner' ) ;
#131 = CARTESIAN_POINT ( 'NONE',  ( 6.047423072554973943E-15, -2.121150477449834784E-16, 1.732050807568894513 ) ) ;
#132 = EDGE_LOOP ( 'NONE', ( #174, #47 ) ) ;
#133 = DESIGN_CONTEXT ( 'detailed design', #242, 'design' ) ;
#134 = COORDINATED_UNIVERSAL_TIME_OFFSET ( 1, 0, .AHEAD. ) ;
#135 = ORIENTED_EDGE ( 'NONE', *, *, #44, .T. ) ;
#136 = ORIENTED_EDGE ( 'NONE', *, *, #160, .F. ) ;
#137 = ORIENTED_EDGE ( 'NONE', *, *, #150, .T. ) ;
#138 = DIRECTION ( 'NONE',  ( 5.135813185032636532E-31, 1.000000000000000000, 1.445602896647341382E-16 ) ) ;
#139 = AXIS2_PLACEMENT_3D ( 'NONE', #131, #169, #255 ) ;
#140 = APPROVAL_PERSON_ORGANIZATION ( #199, #196, #262 ) ;
#141 = CARTESIAN_POINT ( 'NONE',  ( 1.993083515458539681E-13, -2.400000000000009681, 57.00000000000000000 ) ) ;
#142 = PLANE ( 'NONE',  #144 ) ;
#143 = CARTESIAN_POINT ( 'NONE',  ( 1.018508793313980073E-13, -2.999999999999995559, 1.732050807568894069 ) ) ;
#144 = AXIS2_PLACEMENT_3D ( 'NONE', #211, #231, #229 ) ;
#145 = FACE_OUTER_BOUND ( 'NONE', #118, .T. ) ;
#146 = ADVANCED_FACE ( 'NONE', ( #275 ), #142, .F. ) ;
#147 = CARTESIAN_POINT ( 'NONE',  ( 0.0000000000000000000, 0.0000000000000000000, 0.0000000000000000000 ) ) ;
#148 = CALENDAR_DATE ( 2021, 2, 9 ) ;
#149 = AXIS2_PLACEMENT_3D ( 'NONE', #93, #167, #233 ) ;
#150 = EDGE_CURVE ( 'NONE', #114, #66, #155, .T. ) ;
#151 = CARTESIAN_POINT ( 'NONE',  ( 6.047423072554973943E-15, -2.503857664561960972E-16, 1.732050807568894513 ) ) ;
#152 = VERTEX_POINT ( 'NONE', #143 ) ;
#153 = FACE_OUTER_BOUND ( 'NONE', #176, .T. ) ;
#154 = PERSON ( 'UNSPECIFIED', 'UNSPECIFIED', 'UNSPECIFIED', ('UNSPECIFIED'), ('UNSPECIFIED'), ('UNSPECIFIED') ) ;
#155 = CIRCLE ( 'NONE', #197, 3.000000000000002665 ) ;
#156 = CIRCLE ( 'NONE', #29, 2.999999999999995559 ) ;
#157 = EDGE_CURVE ( 'NONE', #83, #203, #188, .T. ) ;
#158 = APPROVAL_PERSON_ORGANIZATION ( #102, #51, #12 ) ;
#159 = APPROVAL_STATUS ( 'not_yet_approved' ) ;
#160 = EDGE_CURVE ( 'NONE', #1, #152, #99, .T. ) ;
#161 = CALENDAR_DATE ( 2021, 2, 9 ) ;
#162 = CARTESIAN_POINT ( 'NONE',  ( 6.047423072554973943E-15, -2.121150477449834784E-16, 1.732050807568894513 ) ) ;
#163 = ORIENTED_EDGE ( 'NONE', *, *, #157, .F. ) ;
#164 = CARTESIAN_POINT ( 'NONE',  ( 6.047423072554973943E-15, -2.121150477449834784E-16, 1.732050807568894513 ) ) ;
#165 = CARTESIAN_POINT ( 'NONE',  ( 0.0000000000000000000, 0.0000000000000000000, 0.0000000000000000000 ) ) ;
#166 = CARTESIAN_POINT ( 'NONE',  ( 1.990144363140586139E-13, -6.980486755139912911E-15, 57.00000000000000000 ) ) ;
#167 = DIRECTION ( 'NONE',  ( 3.491481338843133355E-15, -1.224646799147353207E-16, 1.000000000000000000 ) ) ;
#168 = CYLINDRICAL_SURFACE ( 'NONE', #57, 2.999999999999999112 ) ;
#169 = DIRECTION ( 'NONE',  ( -3.491481338843133355E-15, 1.224646799147353207E-16, -1.000000000000000000 ) ) ;
#170 = CC_DESIGN_DATE_AND_TIME_ASSIGNMENT ( #286, #223, ( #64 ) ) ;
#171 = APPROVAL_ROLE ( '' ) ;
#172 = CIRCLE ( 'NONE', #13, 2.400000000000003020 ) ;
#173 = APPLICATION_PROTOCOL_DEFINITION ( 'international standard', 'config_control_design', 1994, #128 ) ;
#174 = ORIENTED_EDGE ( 'NONE', *, *, #264, .F. ) ;
#175 = COORDINATED_UNIVERSAL_TIME_OFFSET ( 1, 0, .AHEAD. ) ;
#176 = EDGE_LOOP ( 'NONE', ( #217, #137, #89, #40 ) ) ;
#177 = UNCERTAINTY_MEASURE_WITH_UNIT (LENGTH_MEASURE( 1.000000000000000082E-05 ), #56, 'distance_accuracy_value', 'NONE');
#178 = ORIENTED_EDGE ( 'NONE', *, *, #90, .F. ) ;
#179 = ORIENTED_EDGE ( 'NONE', *, *, #90, .T. ) ;
#180 = FACE_OUTER_BOUND ( 'NONE', #283, .T. ) ;
#181 = ADVANCED_FACE ( 'NONE', ( #228 ), #98, .T. ) ;
#182 = DIRECTION ( 'NONE',  ( -2.382254525458723780E-15, -0.7071067811865453523, -0.7071067811865496822 ) ) ;
#183 = FACE_OUTER_BOUND ( 'NONE', #222, .T. ) ;
#184 = CONICAL_SURFACE ( 'NONE', #63, 2.400000000000003020, 0.7853981633974453924 ) ;
#185 = DIRECTION ( 'NONE',  ( -3.491481338843133355E-15, 1.224646799147353207E-16, -1.000000000000000000 ) ) ;
#186 = CC_DESIGN_PERSON_AND_ORGANIZATION_ASSIGNMENT ( #46, #225, ( #265 ) ) ;
#187 = MANIFOLD_SOLID_BREP ( 'Corps-Déplacer/Copier1[1]', #119 ) ;
#188 = LINE ( 'NONE', #31, #202 ) ;
#189 = FACE_OUTER_BOUND ( 'NONE', #38, .T. ) ;
#190 = CARTESIAN_POINT ( 'NONE',  ( 1.282749433769087232E-30, 2.999999999999999112, 3.673940397442058882E-16 ) ) ;
#191 = LOCAL_TIME ( 9, 28, 17.00000000000000000, #175 ) ;
#192 = DATE_AND_TIME ( #20, #103 ) ;
#193 = CARTESIAN_POINT ( 'NONE',  ( 0.0000000000000000000, 0.0000000000000000000, 0.0000000000000000000 ) ) ;
#194 = DIRECTION ( 'NONE',  ( 0.0000000000000000000, 1.000000000000000000, 0.0000000000000000000 ) ) ;
#195 = ORIENTED_EDGE ( 'NONE', *, *, #230, .F. ) ;
#196 = APPROVAL ( #159, 'UNSPECIFIED' ) ;
#197 = AXIS2_PLACEMENT_3D ( 'NONE', #72, #55, #52 ) ;
#198 = PRODUCT_DEFINITION ( 'UNKNOWN', '', #265, #133 ) ;
#199 = PERSON_AND_ORGANIZATION ( #154, #69 ) ;
#200 = ORIENTED_EDGE ( 'NONE', *, *, #60, .T. ) ;
#201 = COORDINATED_UNIVERSAL_TIME_OFFSET ( 1, 0, .AHEAD. ) ;
#202 = VECTOR ( 'NONE', #208, 1000.000000000000114 ) ;
#203 = VERTEX_POINT ( 'NONE', #74 ) ;
#204 = LOCAL_TIME ( 9, 28, 17.00000000000000000, #201 ) ;
#205 = ADVANCED_FACE ( 'NONE', ( #145 ), #22, .T. ) ;
#206 = CARTESIAN_POINT ( 'NONE',  ( 1.990144363140586139E-13, 2.399999999999995914, 57.00000000000000000 ) ) ;
#207 = CARTESIAN_POINT ( 'NONE',  ( 6.047423072554973943E-15, -2.503857664561960972E-16, 1.732050807568894513 ) ) ;
#208 = DIRECTION ( 'NONE',  ( 1.745740669421581074E-15, -0.8660254037844362651, 0.5000000000000041078 ) ) ;
#209 = AXIS2_PLACEMENT_3D ( 'NONE', #249, #185, #75 ) ;
#210 = ADVANCED_FACE ( 'NONE', ( #189 ), #184, .T. ) ;
#211 = CARTESIAN_POINT ( 'NONE',  ( 1.990144363140586139E-13, 1.799711739194220919E-32, 57.00000000000000000 ) ) ;
#212 = CARTESIAN_POINT ( 'NONE',  ( 6.414817112299180965E-15, 2.999999999999995559, 1.732050807568894957 ) ) ;
#213 = CC_DESIGN_PERSON_AND_ORGANIZATION_ASSIGNMENT ( #68, #87, ( #265 ) ) ;
#214 = PERSON_AND_ORGANIZATION ( #154, #69 ) ;
#215 = ORIENTED_EDGE ( 'NONE', *, *, #230, .T. ) ;
#216 = DIRECTION ( 'NONE',  ( 5.135813185032636532E-31, 1.000000000000000000, 1.445602896647341382E-16 ) ) ;
#217 = ORIENTED_EDGE ( 'NONE', *, *, #122, .F. ) ;
#218 = VECTOR ( 'NONE', #124, 1000.000000000000000 ) ;
#219 = DIRECTION ( 'NONE',  ( 4.275831445896958607E-31, 1.000000000000000000, 1.224646799147353207E-16 ) ) ;
#220 = VECTOR ( 'NONE', #259, 1000.000000000000227 ) ;
#221 = PERSON_AND_ORGANIZATION ( #154, #69 ) ;
#222 = EDGE_LOOP ( 'NONE', ( #135, #266, #136, #243 ) ) ;
#223 = DATE_TIME_ROLE ( 'classification_date' ) ;
#224 = ORIENTED_EDGE ( 'NONE', *, *, #157, .T. ) ;
#225 = PERSON_AND_ORGANIZATION_ROLE ( 'creator' ) ;
#226 = DIRECTION ( 'NONE',  ( 3.491481338843133355E-15, -1.224646799147353207E-16, 1.000000000000000000 ) ) ;
#227 = EDGE_CURVE ( 'NONE', #80, #203, #76, .T. ) ;
#228 = FACE_OUTER_BOUND ( 'NONE', #24, .T. ) ;
#229 = DIRECTION ( 'NONE',  ( 4.275831445896958607E-31, 1.000000000000000000, 1.224646799147353207E-16 ) ) ;
#230 = EDGE_CURVE ( 'NONE', #83, #80, #30, .T. ) ;
#231 = DIRECTION ( 'NONE',  ( -3.491481338843133355E-15, 1.224646799147353207E-16, -1.000000000000000000 ) ) ;
#232 = CARTESIAN_POINT ( 'NONE',  ( 1.018508793313978432E-13, -3.000000000000009326, 56.39999999999999858 ) ) ;
#233 = DIRECTION ( 'NONE',  ( -5.135813185032636532E-31, -1.000000000000000000, -1.445602896647341382E-16 ) ) ;
#234 = DATE_TIME_ROLE ( 'creation_date' ) ;
#235 = CARTESIAN_POINT ( 'NONE',  ( 1.982976465481754348E-13, -2.400000000000009681, 57.00000000000000000 ) ) ;
#236 = AXIS2_PLACEMENT_3D ( 'NONE', #162, #226, #5 ) ;
#237 = CC_DESIGN_APPROVAL ( #240, ( #265 ) ) ;
#238 = MECHANICAL_CONTEXT ( 'NONE', #128, 'mechanical' ) ;
#239 = VERTEX_POINT ( 'NONE', #235 ) ;
#240 = APPROVAL ( #111, 'UNSPECIFIED' ) ;
#241 = DIRECTION ( 'NONE',  ( 1.000000000000000000, 0.0000000000000000000, 0.0000000000000000000 ) ) ;
#242 = APPLICATION_CONTEXT ( 'configuration controlled 3d designs of mechanical parts and assemblies' ) ;
#243 = ORIENTED_EDGE ( 'NONE', *, *, #253, .F. ) ;
#244 = SHAPE_DEFINITION_REPRESENTATION ( #25, #270 ) ;
#245 = EDGE_LOOP ( 'NONE', ( #178, #200, #86, #49 ) ) ;
#246 = FACE_OUTER_BOUND ( 'NONE', #269, .T. ) ;
#247 = LINE ( 'NONE', #206, #84 ) ;
#248 = DIRECTION ( 'NONE',  ( -3.491481338843133355E-15, 1.224646799147353207E-16, -1.000000000000000000 ) ) ;
#249 = CARTESIAN_POINT ( 'NONE',  ( 6.047423072554973943E-15, -2.121150477449834784E-16, 1.732050807568894513 ) ) ;
#250 = DIRECTION ( 'NONE',  ( -3.491481338843133355E-15, 1.224646799147353207E-16, -1.000000000000000000 ) ) ;
#251 = DIRECTION ( 'NONE',  ( 4.275831445896958607E-31, 1.000000000000000000, 1.224646799147353207E-16 ) ) ;
#252 = DIRECTION ( 'NONE',  ( -3.491481338843133355E-15, 1.224646799147353207E-16, -1.000000000000000000 ) ) ;
#253 = EDGE_CURVE ( 'NONE', #66, #1, #277, .T. ) ;
#254 = LOCAL_TIME ( 9, 28, 17.00000000000000000, #3 ) ;
#255 = DIRECTION ( 'NONE',  ( 5.135813185032636532E-31, 1.000000000000000000, 1.445602896647341382E-16 ) ) ;
#256 = COORDINATED_UNIVERSAL_TIME_OFFSET ( 1, 0, .AHEAD. ) ;
#257 = CIRCLE ( 'NONE', #287, 2.400000000000003020 ) ;
#258 = ADVANCED_FACE ( 'NONE', ( #153 ), #78, .T. ) ;
#259 = DIRECTION ( 'NONE',  ( 1.851798193294072678E-15, 0.8660254037844361541, 0.5000000000000044409 ) ) ;
#260 = ORIENTED_EDGE ( 'NONE', *, *, #281, .T. ) ;
#261 = DATE_AND_TIME ( #148, #191 ) ;
#262 = APPROVAL_ROLE ( '' ) ;
#263 = AXIS2_PLACEMENT_3D ( 'NONE', #147, #82, #241 ) ;
#264 = EDGE_CURVE ( 'NONE', #17, #239, #172, .T. ) ;
#265 = PRODUCT_DEFINITION_FORMATION_WITH_SPECIFIED_SOURCE ( 'ANY', '', #285, .NOT_KNOWN. ) ;
#266 = ORIENTED_EDGE ( 'NONE', *, *, #122, .T. ) ;
#267 = ORIENTED_EDGE ( 'NONE', *, *, #276, .T. ) ;
#268 = CIRCLE ( 'NONE', #79, 3.000000000000002665 ) ;
#269 = EDGE_LOOP ( 'NONE', ( #195, #224, #267 ) ) ;
#270 = ADVANCED_BREP_SHAPE_REPRESENTATION ( '43238', ( #187, #88, #263 ), #100 ) ;
#271 = PLANE ( 'NONE',  #18 ) ;
#272 = DIRECTION ( 'NONE',  ( -3.491481338843133355E-15, 1.224646799147353207E-16, -1.000000000000000000 ) ) ;
#273 = DIRECTION ( 'NONE',  ( -3.491481338843133355E-15, 1.224646799147353207E-16, -1.000000000000000000 ) ) ;
#274 = DIRECTION ( 'NONE',  ( 3.491481338843133355E-15, -1.224646799147353207E-16, 1.000000000000000000 ) ) ;
#275 = FACE_OUTER_BOUND ( 'NONE', #132, .T. ) ;
#276 = EDGE_CURVE ( 'NONE', #203, #80, #278, .T. ) ;
#277 = LINE ( 'NONE', #190, #94 ) ;
#278 = CIRCLE ( 'NONE', #139, 2.999999999999995559 ) ;
#279 = DIRECTION ( 'NONE',  ( -3.491481338843133355E-15, 1.224646799147353207E-16, -1.000000000000000000 ) ) ;
#280 = PERSON_AND_ORGANIZATION ( #154, #69 ) ;
#281 = EDGE_CURVE ( 'NONE', #152, #1, #156, .T. ) ;
#282 = AXIS2_PLACEMENT_3D ( 'NONE', #164, #33, #138 ) ;
#283 = EDGE_LOOP ( 'NONE', ( #107, #260 ) ) ;
#284 = APPLICATION_PROTOCOL_DEFINITION ( 'international standard', 'config_control_design', 1994, #242 ) ;
#285 = PRODUCT ( '43238', '43238', '', ( #238 ) ) ;
#286 = DATE_AND_TIME ( #113, #204 ) ;
#287 = AXIS2_PLACEMENT_3D ( 'NONE', #166, #71, #6 ) ;
ENDSEC;
END-ISO-10303-21;
