ISO-10303-21;
HEADER;
FILE_DESCRIPTION (( 'STEP AP203' ),
    '1' );
FILE_NAME ('43236.step',
    '2021-09-02T07:28:16',
    ( '' ),
    ( '' ),
    'SwSTEP 2.0',
    'SolidWorks 2019',
    '' );
FILE_SCHEMA (( 'CONFIG_CONTROL_DESIGN' ));
ENDSEC;

DATA;
#1 = CALENDAR_DATE ( 2021, 2, 9 ) ;
#2 = EDGE_CURVE ( 'NONE', #15, #135, #76, .T. ) ;
#3 = PERSON_AND_ORGANIZATION_ROLE ( 'creator' ) ;
#4 = PRODUCT_DEFINITION_SHAPE ( 'NONE', 'NONE',  #13 ) ;
#5 = VECTOR ( 'NONE', #173, 1000.000000000000000 ) ;
#6 = DATE_AND_TIME ( #158, #138 ) ;
#7 = VERTEX_POINT ( 'NONE', #36 ) ;
#8 = CIRCLE ( 'NONE', #191, 1.499999999999998446 ) ;
#9 = APPROVAL_PERSON_ORGANIZATION ( #200, #204, #198 ) ;
#10 = CARTESIAN_POINT ( 'NONE',  ( 1.316288464743861212E-13, 1.499999999999994005, 37.69999999999999574 ) ) ;
#11 = APPLICATION_CONTEXT ( 'configuration controlled 3d designs of mechanical parts and assemblies' ) ;
#12 = DIRECTION ( 'NONE',  ( 0.0000000000000000000, 1.000000000000000000, 0.0000000000000000000 ) ) ;
#13 = PRODUCT_DEFINITION ( 'UNKNOWN', '', #58, #47 ) ;
#14 = CARTESIAN_POINT ( 'NONE',  ( 3.207408556149582594E-15, 1.499999999999994005, 0.8660254037844453689 ) ) ;
#15 = VERTEX_POINT ( 'NONE', #117 ) ;
#16 = CARTESIAN_POINT ( 'NONE',  ( 1.326762908760390423E-13, -4.653657836759941941E-15, 38.00000000000000000 ) ) ;
#17 =( NAMED_UNIT ( * ) PLANE_ANGLE_UNIT ( ) SI_UNIT ( $, .RADIAN. ) );
#18 = CONICAL_SURFACE ( 'NONE', #113, 1.199999999999998623, 0.7853981633974453924 ) ;
#19 = CARTESIAN_POINT ( 'NONE',  ( 3.023711536277480661E-15, 1.499999999999994005, 0.8660254037844453689 ) ) ;
#20 = EDGE_CURVE ( 'NONE', #215, #30, #93, .T. ) ;
#21 = PERSON ( 'UNSPECIFIED', 'UNSPECIFIED', 'UNSPECIFIED', ('UNSPECIFIED'), ('UNSPECIFIED'), ('UNSPECIFIED') ) ;
#22 = CARTESIAN_POINT ( 'NONE',  ( 3.023711536277479083E-15, -1.499999999999994005, 0.8660254037844450359 ) ) ;
#23 = LINE ( 'NONE', #64, #130 ) ;
#24 = AXIS2_PLACEMENT_3D ( 'NONE', #84, #43, #226 ) ;
#25 = PERSON_AND_ORGANIZATION ( #21, #79 ) ;
#26 = EDGE_CURVE ( 'NONE', #135, #56, #233, .T. ) ;
#27 = PERSON_AND_ORGANIZATION ( #21, #79 ) ;
#28 = ORIENTED_EDGE ( 'NONE', *, *, #207, .F. ) ;
#29 = VECTOR ( 'NONE', #165, 1000.000000000000114 ) ;
#30 = VERTEX_POINT ( 'NONE', #35 ) ;
#31 = AXIS2_PLACEMENT_3D ( 'NONE', #142, #235, #80 ) ;
#32 = AXIS2_PLACEMENT_3D ( 'NONE', #66, #122, #261 ) ;
#33 = CARTESIAN_POINT ( 'NONE',  ( 1.326762908760390423E-13, 1.199999999999993960, 38.00000000000000000 ) ) ;
#34 = EDGE_CURVE ( 'NONE', #56, #215, #61, .T. ) ;
#35 = CARTESIAN_POINT ( 'NONE',  ( 6.750997602520385237E-14, -1.499999999999994005, 0.8660254037844450359 ) ) ;
#36 = CARTESIAN_POINT ( 'NONE',  ( 0.0000000000000000000, 0.0000000000000000000, 0.0000000000000000000 ) ) ;
#37 = CLOSED_SHELL ( 'NONE', ( #157, #264, #192, #228, #162, #278 ) ) ;
#38 = CARTESIAN_POINT ( 'NONE',  ( 3.023711536277479872E-15, -1.060575238724914927E-16, 0.8660254037844451469 ) ) ;
#39 = FACE_OUTER_BOUND ( 'NONE', #227, .T. ) ;
#40 = CARTESIAN_POINT ( 'NONE',  ( 1.328232484919367446E-13, -1.200000000000003064, 38.00000000000000000 ) ) ;
#41 = CIRCLE ( 'NONE', #249, 1.499999999999998446 ) ;
#42 = ORIENTED_EDGE ( 'NONE', *, *, #34, .T. ) ;
#43 = DIRECTION ( 'NONE',  ( 0.0000000000000000000, 0.0000000000000000000, 1.000000000000000000 ) ) ;
#44 = APPLICATION_PROTOCOL_DEFINITION ( 'international standard', 'config_control_design', 1994, #45 ) ;
#45 = APPLICATION_CONTEXT ( 'configuration controlled 3d designs of mechanical parts and assemblies' ) ;
#46 = EDGE_CURVE ( 'NONE', #7, #116, #120, .T. ) ;
#47 = DESIGN_CONTEXT ( 'detailed design', #11, 'design' ) ;
#48 = PERSON_AND_ORGANIZATION ( #21, #79 ) ;
#49 = AXIS2_PLACEMENT_3D ( 'NONE', #82, #169, #78 ) ;
#50 = DATE_TIME_ROLE ( 'creation_date' ) ;
#51 = APPROVAL_ROLE ( '' ) ;
#52 = PRODUCT_RELATED_PRODUCT_CATEGORY ( 'detail', '', ( #223 ) ) ;
#53 = COORDINATED_UNIVERSAL_TIME_OFFSET ( 1, 0, .AHEAD. ) ;
#54 = ORIENTED_EDGE ( 'NONE', *, *, #181, .F. ) ;
#55 = EDGE_CURVE ( 'NONE', #56, #285, #41, .T. ) ;
#56 = VERTEX_POINT ( 'NONE', #10 ) ;
#57 = CONICAL_SURFACE ( 'NONE', #176, 1.199999999999998623, 0.7853981633974453924 ) ;
#58 = PRODUCT_DEFINITION_FORMATION_WITH_SPECIFIED_SOURCE ( 'ANY', '', #223, .NOT_KNOWN. ) ;
#59 = EDGE_LOOP ( 'NONE', ( #164, #151, #143, #244 ) ) ;
#60 = CARTESIAN_POINT ( 'NONE',  ( 6.413747168845421269E-31, 1.499999999999996225, 1.836970198721025004E-16 ) ) ;
#61 = LINE ( 'NONE', #60, #128 ) ;
#62 = APPROVAL_PERSON_ORGANIZATION ( #71, #98, #199 ) ;
#63 = ORIENTED_EDGE ( 'NONE', *, *, #90, .T. ) ;
#64 = CARTESIAN_POINT ( 'NONE',  ( 1.836970198721018841E-16, -1.499999999999996225, -1.836970198721031167E-16 ) ) ;
#65 = EDGE_CURVE ( 'NONE', #30, #215, #105, .T. ) ;
#66 = CARTESIAN_POINT ( 'NONE',  ( 3.023711536277479872E-15, -1.251928832280980733E-16, 0.8660254037844451469 ) ) ;
#67 = DIRECTION ( 'NONE',  ( 4.275831445896958607E-31, 1.000000000000000000, 1.224646799147353207E-16 ) ) ;
#68 = CARTESIAN_POINT ( 'NONE',  ( 3.023711536277479872E-15, -1.251928832280980733E-16, 0.8660254037844451469 ) ) ;
#69 = CARTESIAN_POINT ( 'NONE',  ( 3.023711536277479083E-15, -1.499999999999994005, 0.8660254037844450359 ) ) ;
#70 = APPROVAL_DATE_TIME ( #267, #204 ) ;
#71 = PERSON_AND_ORGANIZATION ( #21, #79 ) ;
#72 = APPROVAL_DATE_TIME ( #202, #153 ) ;
#73 = ORIENTED_EDGE ( 'NONE', *, *, #26, .F. ) ;
#74 = EDGE_LOOP ( 'NONE', ( #156, #273 ) ) ;
#75 = APPROVAL_STATUS ( 'not_yet_approved' ) ;
#76 = CIRCLE ( 'NONE', #31, 1.199999999999998623 ) ;
#77 = FACE_OUTER_BOUND ( 'NONE', #91, .T. ) ;
#78 = DIRECTION ( 'NONE',  ( 5.135813185032649669E-31, 1.000000000000000000, 1.445602896647345080E-16 ) ) ;
#79 = ORGANIZATION ( 'UNSPECIFIED', 'UNSPECIFIED', '' ) ;
#80 = DIRECTION ( 'NONE',  ( 0.0000000000000000000, 1.000000000000000000, 0.0000000000000000000 ) ) ;
#81 = CARTESIAN_POINT ( 'NONE',  ( 1.316288464743861212E-13, -4.616918432785521081E-15, 37.69999999999999574 ) ) ;
#82 = CARTESIAN_POINT ( 'NONE',  ( 3.023711536277479872E-15, -1.060575238724914927E-16, 0.8660254037844451469 ) ) ;
#83 = EDGE_CURVE ( 'NONE', #135, #15, #201, .T. ) ;
#84 = CARTESIAN_POINT ( 'NONE',  ( 0.0000000000000000000, 0.0000000000000000000, 0.0000000000000000000 ) ) ;
#85 = FACE_OUTER_BOUND ( 'NONE', #230, .T. ) ;
#86 = AXIS2_PLACEMENT_3D ( 'NONE', #147, #214, #149 ) ;
#87 = PERSON_AND_ORGANIZATION ( #21, #79 ) ;
#88 = COORDINATED_UNIVERSAL_TIME_OFFSET ( 1, 0, .AHEAD. ) ;
#89 = VECTOR ( 'NONE', #146, 1000.000000000000227 ) ;
#90 = EDGE_CURVE ( 'NONE', #285, #56, #8, .T. ) ;
#91 = EDGE_LOOP ( 'NONE', ( #268, #205, #168, #73 ) ) ;
#92 = COORDINATED_UNIVERSAL_TIME_OFFSET ( 1, 0, .AHEAD. ) ;
#93 = CIRCLE ( 'NONE', #231, 1.499999999999994005 ) ;
#94 = DIRECTION ( 'NONE',  ( -3.491481338843133355E-15, 1.224646799147353207E-16, -1.000000000000000000 ) ) ;
#95 = CARTESIAN_POINT ( 'NONE',  ( 3.023711536277479872E-15, -1.060575238724914927E-16, 0.8660254037844451469 ) ) ;
#96 = ADVANCED_BREP_SHAPE_REPRESENTATION ( '43236', ( #242, #148, #24 ), #241 ) ;
#97 = DIRECTION ( 'NONE',  ( -3.491481338843133355E-15, 1.224646799147353207E-16, -1.000000000000000000 ) ) ;
#98 = APPROVAL ( #75, 'UNSPECIFIED' ) ;
#99 = DIRECTION ( 'NONE',  ( -3.491481338843133355E-15, 1.224646799147353207E-16, -1.000000000000000000 ) ) ;
#100 = DIRECTION ( 'NONE',  ( -3.491481338843133355E-15, 1.224646799147353207E-16, -1.000000000000000000 ) ) ;
#101 = DIRECTION ( 'NONE',  ( -4.275831445896958607E-31, -1.000000000000000000, -1.224646799147353207E-16 ) ) ;
#102 = CC_DESIGN_PERSON_AND_ORGANIZATION_ASSIGNMENT ( #222, #133, ( #58 ) ) ;
#103 = DIRECTION ( 'NONE',  ( 5.135813185032649669E-31, 1.000000000000000000, 1.445602896647345080E-16 ) ) ;
#104 = DIRECTION ( 'NONE',  ( 3.491481338843133355E-15, -1.224646799147353207E-16, 1.000000000000000000 ) ) ;
#105 = CIRCLE ( 'NONE', #137, 1.499999999999994005 ) ;
#106 = FACE_OUTER_BOUND ( 'NONE', #74, .T. ) ;
#107 = APPROVAL_STATUS ( 'not_yet_approved' ) ;
#108 = ORIENTED_EDGE ( 'NONE', *, *, #65, .T. ) ;
#109 = APPROVAL_STATUS ( 'not_yet_approved' ) ;
#110 = ORIENTED_EDGE ( 'NONE', *, *, #212, .F. ) ;
#111 = CC_DESIGN_PERSON_AND_ORGANIZATION_ASSIGNMENT ( #27, #129, ( #223 ) ) ;
#112 = CALENDAR_DATE ( 2021, 2, 9 ) ;
#113 = AXIS2_PLACEMENT_3D ( 'NONE', #208, #213, #12 ) ;
#114 = EDGE_LOOP ( 'NONE', ( #139, #277, #141, #180 ) ) ;
#115 = ORIENTED_EDGE ( 'NONE', *, *, #46, .F. ) ;
#116 = VERTEX_POINT ( 'NONE', #189 ) ;
#117 = CARTESIAN_POINT ( 'NONE',  ( 1.323178959930974653E-13, -1.200000000000003064, 38.00000000000000000 ) ) ;
#118 = FACE_OUTER_BOUND ( 'NONE', #203, .T. ) ;
#119 = DIRECTION ( 'NONE',  ( 5.135813185032649669E-31, 1.000000000000000000, 1.445602896647345080E-16 ) ) ;
#120 = LINE ( 'NONE', #14, #89 ) ;
#121 = DIRECTION ( 'NONE',  ( -3.491481338843133355E-15, 1.224646799147353207E-16, -1.000000000000000000 ) ) ;
#122 = DIRECTION ( 'NONE',  ( 3.491481338843133355E-15, -1.224646799147353207E-16, 1.000000000000000000 ) ) ;
#123 = PLANE ( 'NONE',  #32 ) ;
#124 = UNCERTAINTY_MEASURE_WITH_UNIT (LENGTH_MEASURE( 1.000000000000000082E-05 ), #286, 'distance_accuracy_value', 'NONE');
#125 = DIRECTION ( 'NONE',  ( -3.491481338843133355E-15, 1.224646799147353207E-16, -1.000000000000000000 ) ) ;
#126 = DIRECTION ( 'NONE',  ( 1.745740669421581074E-15, -0.8660254037844362651, 0.5000000000000041078 ) ) ;
#127 = CYLINDRICAL_SURFACE ( 'NONE', #86, 1.499999999999996225 ) ;
#128 = VECTOR ( 'NONE', #188, 1000.000000000000000 ) ;
#129 = PERSON_AND_ORGANIZATION_ROLE ( 'design_owner' ) ;
#130 = VECTOR ( 'NONE', #174, 1000.000000000000000 ) ;
#131 = PERSON_AND_ORGANIZATION ( #21, #79 ) ;
#132 = DATE_TIME_ROLE ( 'classification_date' ) ;
#133 = PERSON_AND_ORGANIZATION_ROLE ( 'design_supplier' ) ;
#134 = AXIS2_PLACEMENT_3D ( 'NONE', #95, #185, #187 ) ;
#135 = VERTEX_POINT ( 'NONE', #33 ) ;
#136 = ORIENTED_EDGE ( 'NONE', *, *, #260, .F. ) ;
#137 = AXIS2_PLACEMENT_3D ( 'NONE', #38, #94, #256 ) ;
#138 = LOCAL_TIME ( 9, 28, 16.00000000000000000, #224 ) ;
#139 = ORIENTED_EDGE ( 'NONE', *, *, #255, .F. ) ;
#140 = CC_DESIGN_PERSON_AND_ORGANIZATION_ASSIGNMENT ( #25, #272, ( #161 ) ) ;
#141 = ORIENTED_EDGE ( 'NONE', *, *, #26, .T. ) ;
#142 = CARTESIAN_POINT ( 'NONE',  ( 1.326762908760390423E-13, -4.653657836759941941E-15, 38.00000000000000000 ) ) ;
#143 = ORIENTED_EDGE ( 'NONE', *, *, #20, .F. ) ;
#144 = CARTESIAN_POINT ( 'NONE',  ( 1.326762908760390423E-13, -4.653657836759941941E-15, 38.00000000000000000 ) ) ;
#145 = AXIS2_PLACEMENT_3D ( 'NONE', #154, #265, #262 ) ;
#146 = DIRECTION ( 'NONE',  ( 1.851798193294072678E-15, 0.8660254037844361541, 0.5000000000000044409 ) ) ;
#147 = CARTESIAN_POINT ( 'NONE',  ( 0.0000000000000000000, 0.0000000000000000000, 0.0000000000000000000 ) ) ;
#148 = MANIFOLD_SOLID_BREP ( 'Corps-Déplacer/Copier1[2]', #221 ) ;
#149 = DIRECTION ( 'NONE',  ( 4.275831445896958607E-31, 1.000000000000000000, 1.224646799147353207E-16 ) ) ;
#150 = CC_DESIGN_APPROVAL ( #98, ( #161 ) ) ;
#151 = ORIENTED_EDGE ( 'NONE', *, *, #212, .T. ) ;
#152 =( NAMED_UNIT ( * ) SI_UNIT ( $, .STERADIAN. ) SOLID_ANGLE_UNIT ( ) );
#153 = APPROVAL ( #109, 'UNSPECIFIED' ) ;
#154 = CARTESIAN_POINT ( 'NONE',  ( 1.326762908760390423E-13, 8.998558695971067645E-33, 38.00000000000000000 ) ) ;
#155 = PLANE ( 'NONE',  #178 ) ;
#156 = ORIENTED_EDGE ( 'NONE', *, *, #83, .F. ) ;
#157 = ADVANCED_FACE ( 'NONE', ( #77 ), #18, .T. ) ;
#158 = CALENDAR_DATE ( 2021, 2, 9 ) ;
#159 = COORDINATED_UNIVERSAL_TIME_OFFSET ( 1, 0, .AHEAD. ) ;
#160 = DATE_AND_TIME ( #225, #229 ) ;
#161 = SECURITY_CLASSIFICATION ( '', '', #177 ) ;
#162 = ADVANCED_FACE ( 'NONE', ( #163 ), #57, .T. ) ;
#163 = FACE_OUTER_BOUND ( 'NONE', #114, .T. ) ;
#164 = ORIENTED_EDGE ( 'NONE', *, *, #55, .T. ) ;
#165 = DIRECTION ( 'NONE',  ( -2.468850131082271655E-15, 0.7071067811865455743, -0.7071067811865493491 ) ) ;
#166 = CARTESIAN_POINT ( 'NONE',  ( 1.326762908760390423E-13, 1.199999999999993960, 38.00000000000000000 ) ) ;
#167 = CC_DESIGN_PERSON_AND_ORGANIZATION_ASSIGNMENT ( #131, #245, ( #13 ) ) ;
#168 = ORIENTED_EDGE ( 'NONE', *, *, #55, .F. ) ;
#169 = DIRECTION ( 'NONE',  ( -3.491481338843133355E-15, 1.224646799147353207E-16, -1.000000000000000000 ) ) ;
#170 = CC_DESIGN_APPROVAL ( #204, ( #13 ) ) ;
#171 = DIRECTION ( 'NONE',  ( -5.135813185032649669E-31, -1.000000000000000000, -1.445602896647345080E-16 ) ) ;
#172 = FACE_OUTER_BOUND ( 'NONE', #59, .T. ) ;
#173 = DIRECTION ( 'NONE',  ( -2.382254525458723780E-15, -0.7071067811865453523, -0.7071067811865496822 ) ) ;
#174 = DIRECTION ( 'NONE',  ( -3.491481338843133355E-15, 1.224646799147353207E-16, -1.000000000000000000 ) ) ;
#175 = MECHANICAL_CONTEXT ( 'NONE', #45, 'mechanical' ) ;
#176 = AXIS2_PLACEMENT_3D ( 'NONE', #16, #100, #281 ) ;
#177 = SECURITY_CLASSIFICATION_LEVEL ( 'unclassified' ) ;
#178 = AXIS2_PLACEMENT_3D ( 'NONE', #68, #104, #101 ) ;
#179 = ORIENTED_EDGE ( 'NONE', *, *, #181, .T. ) ;
#180 = ORIENTED_EDGE ( 'NONE', *, *, #90, .F. ) ;
#181 = EDGE_CURVE ( 'NONE', #209, #116, #270, .T. ) ;
#182 = APPROVAL_PERSON_ORGANIZATION ( #48, #153, #51 ) ;
#183 = DIRECTION ( 'NONE',  ( -3.491481338843133355E-15, 1.224646799147353207E-16, -1.000000000000000000 ) ) ;
#184 = ADVANCED_FACE ( 'NONE', ( #118 ), #211, .T. ) ;
#185 = DIRECTION ( 'NONE',  ( 3.491481338843133355E-15, -1.224646799147353207E-16, 1.000000000000000000 ) ) ;
#186 = ORIENTED_EDGE ( 'NONE', *, *, #65, .F. ) ;
#187 = DIRECTION ( 'NONE',  ( -5.135813185032649669E-31, -1.000000000000000000, -1.445602896647345080E-16 ) ) ;
#188 = DIRECTION ( 'NONE',  ( -3.491481338843133355E-15, 1.224646799147353207E-16, -1.000000000000000000 ) ) ;
#189 = CARTESIAN_POINT ( 'NONE',  ( 3.207408556149582594E-15, 1.499999999999994005, 0.8660254037844453689 ) ) ;
#190 = LINE ( 'NONE', #69, #236 ) ;
#191 = AXIS2_PLACEMENT_3D ( 'NONE', #81, #121, #276 ) ;
#192 = ADVANCED_FACE ( 'NONE', ( #216 ), #123, .F. ) ;
#193 = CARTESIAN_POINT ( 'NONE',  ( 6.750997602520371353E-14, -1.500000000000003109, 37.69999999999999574 ) ) ;
#194 = CARTESIAN_POINT ( 'NONE',  ( 3.023711536277479872E-15, -1.060575238724914927E-16, 0.8660254037844451469 ) ) ;
#195 = LOCAL_TIME ( 9, 28, 16.00000000000000000, #88 ) ;
#196 = CYLINDRICAL_SURFACE ( 'NONE', #287, 1.499999999999996225 ) ;
#197 = CC_DESIGN_DATE_AND_TIME_ASSIGNMENT ( #248, #132, ( #161 ) ) ;
#198 = APPROVAL_ROLE ( '' ) ;
#199 = APPROVAL_ROLE ( '' ) ;
#200 = PERSON_AND_ORGANIZATION ( #21, #79 ) ;
#201 = CIRCLE ( 'NONE', #258, 1.199999999999998623 ) ;
#202 = DATE_AND_TIME ( #112, #206 ) ;
#203 = EDGE_LOOP ( 'NONE', ( #115, #254, #179 ) ) ;
#204 = APPROVAL ( #107, 'UNSPECIFIED' ) ;
#205 = ORIENTED_EDGE ( 'NONE', *, *, #255, .T. ) ;
#206 = LOCAL_TIME ( 9, 28, 16.00000000000000000, #159 ) ;
#207 = EDGE_CURVE ( 'NONE', #7, #209, #190, .T. ) ;
#208 = CARTESIAN_POINT ( 'NONE',  ( 1.326762908760390423E-13, -4.653657836759941941E-15, 38.00000000000000000 ) ) ;
#209 = VERTEX_POINT ( 'NONE', #22 ) ;
#210 = DIRECTION ( 'NONE',  ( 0.0000000000000000000, 1.000000000000000000, 0.0000000000000000000 ) ) ;
#211 = CONICAL_SURFACE ( 'NONE', #134, 1.499999999999994005, 1.047197551196592746 ) ;
#212 = EDGE_CURVE ( 'NONE', #285, #30, #23, .T. ) ;
#213 = DIRECTION ( 'NONE',  ( -3.491481338843133355E-15, 1.224646799147353207E-16, -1.000000000000000000 ) ) ;
#214 = DIRECTION ( 'NONE',  ( -3.491481338843133355E-15, 1.224646799147353207E-16, -1.000000000000000000 ) ) ;
#215 = VERTEX_POINT ( 'NONE', #19 ) ;
#216 = FACE_OUTER_BOUND ( 'NONE', #279, .T. ) ;
#217 = ADVANCED_FACE ( 'NONE', ( #220 ), #155, .T. ) ;
#218 = AXIS2_PLACEMENT_3D ( 'NONE', #240, #125, #103 ) ;
#219 = DIRECTION ( 'NONE',  ( -3.491481338843133355E-15, 1.224646799147353207E-16, -1.000000000000000000 ) ) ;
#220 = FACE_OUTER_BOUND ( 'NONE', #234, .T. ) ;
#221 = CLOSED_SHELL ( 'NONE', ( #282, #184, #217 ) ) ;
#222 = PERSON_AND_ORGANIZATION ( #21, #79 ) ;
#223 = PRODUCT ( '43236', '43236', '', ( #175 ) ) ;
#224 = COORDINATED_UNIVERSAL_TIME_OFFSET ( 1, 0, .AHEAD. ) ;
#225 = CALENDAR_DATE ( 2021, 2, 9 ) ;
#226 = DIRECTION ( 'NONE',  ( 1.000000000000000000, 0.0000000000000000000, 0.0000000000000000000 ) ) ;
#227 = EDGE_LOOP ( 'NONE', ( #110, #63, #42, #186 ) ) ;
#228 = ADVANCED_FACE ( 'NONE', ( #39 ), #127, .T. ) ;
#229 = LOCAL_TIME ( 9, 28, 16.00000000000000000, #53 ) ;
#230 = EDGE_LOOP ( 'NONE', ( #28, #266, #251 ) ) ;
#231 = AXIS2_PLACEMENT_3D ( 'NONE', #237, #99, #119 ) ;
#232 = CC_DESIGN_SECURITY_CLASSIFICATION ( #161, ( #58 ) ) ;
#233 = LINE ( 'NONE', #166, #29 ) ;
#234 = EDGE_LOOP ( 'NONE', ( #54, #136 ) ) ;
#235 = DIRECTION ( 'NONE',  ( -3.491481338843133355E-15, 1.224646799147353207E-16, -1.000000000000000000 ) ) ;
#236 = VECTOR ( 'NONE', #126, 1000.000000000000114 ) ;
#237 = CARTESIAN_POINT ( 'NONE',  ( 3.023711536277479872E-15, -1.060575238724914927E-16, 0.8660254037844451469 ) ) ;
#238 = CC_DESIGN_DATE_AND_TIME_ASSIGNMENT ( #6, #50, ( #13 ) ) ;
#239 = LINE ( 'NONE', #40, #5 ) ;
#240 = CARTESIAN_POINT ( 'NONE',  ( 3.023711536277479872E-15, -1.060575238724914927E-16, 0.8660254037844451469 ) ) ;
#241 =( GEOMETRIC_REPRESENTATION_CONTEXT ( 3 ) GLOBAL_UNCERTAINTY_ASSIGNED_CONTEXT ( ( #124 ) ) GLOBAL_UNIT_ASSIGNED_CONTEXT ( ( #286, #17, #152 ) ) REPRESENTATION_CONTEXT ( 'NONE', 'WORKASPACE' ) );
#242 = MANIFOLD_SOLID_BREP ( 'Corps-Déplacer/Copier1[1]', #37 ) ;
#243 = LOCAL_TIME ( 9, 28, 16.00000000000000000, #92 ) ;
#244 = ORIENTED_EDGE ( 'NONE', *, *, #34, .F. ) ;
#245 = PERSON_AND_ORGANIZATION_ROLE ( 'creator' ) ;
#246 = APPLICATION_PROTOCOL_DEFINITION ( 'international standard', 'config_control_design', 1994, #11 ) ;
#247 = CC_DESIGN_PERSON_AND_ORGANIZATION_ASSIGNMENT ( #87, #3, ( #58 ) ) ;
#248 = DATE_AND_TIME ( #250, #243 ) ;
#249 = AXIS2_PLACEMENT_3D ( 'NONE', #280, #183, #257 ) ;
#250 = CALENDAR_DATE ( 2021, 2, 9 ) ;
#251 = ORIENTED_EDGE ( 'NONE', *, *, #260, .T. ) ;
#252 = ORIENTED_EDGE ( 'NONE', *, *, #20, .T. ) ;
#253 = AXIS2_PLACEMENT_3D ( 'NONE', #194, #283, #171 ) ;
#254 = ORIENTED_EDGE ( 'NONE', *, *, #207, .T. ) ;
#255 = EDGE_CURVE ( 'NONE', #15, #285, #239, .T. ) ;
#256 = DIRECTION ( 'NONE',  ( 5.135813185032649669E-31, 1.000000000000000000, 1.445602896647345080E-16 ) ) ;
#257 = DIRECTION ( 'NONE',  ( 0.0000000000000000000, 1.000000000000000000, 0.0000000000000000000 ) ) ;
#258 = AXIS2_PLACEMENT_3D ( 'NONE', #144, #97, #210 ) ;
#259 = CC_DESIGN_APPROVAL ( #153, ( #58 ) ) ;
#260 = EDGE_CURVE ( 'NONE', #116, #209, #275, .T. ) ;
#261 = DIRECTION ( 'NONE',  ( -4.275831445896958607E-31, -1.000000000000000000, -1.224646799147353207E-16 ) ) ;
#262 = DIRECTION ( 'NONE',  ( 4.275831445896958607E-31, 1.000000000000000000, 1.224646799147353207E-16 ) ) ;
#263 = CARTESIAN_POINT ( 'NONE',  ( 0.0000000000000000000, 0.0000000000000000000, 0.0000000000000000000 ) ) ;
#264 = ADVANCED_FACE ( 'NONE', ( #172 ), #196, .T. ) ;
#265 = DIRECTION ( 'NONE',  ( -3.491481338843133355E-15, 1.224646799147353207E-16, -1.000000000000000000 ) ) ;
#266 = ORIENTED_EDGE ( 'NONE', *, *, #46, .T. ) ;
#267 = DATE_AND_TIME ( #1, #195 ) ;
#268 = ORIENTED_EDGE ( 'NONE', *, *, #83, .T. ) ;
#269 = SHAPE_DEFINITION_REPRESENTATION ( #4, #96 ) ;
#270 = CIRCLE ( 'NONE', #49, 1.499999999999994005 ) ;
#271 = CONICAL_SURFACE ( 'NONE', #253, 1.499999999999994005, 1.047197551196592746 ) ;
#272 = PERSON_AND_ORGANIZATION_ROLE ( 'classification_officer' ) ;
#273 = ORIENTED_EDGE ( 'NONE', *, *, #2, .F. ) ;
#274 = APPROVAL_DATE_TIME ( #160, #98 ) ;
#275 = CIRCLE ( 'NONE', #218, 1.499999999999994005 ) ;
#276 = DIRECTION ( 'NONE',  ( 0.0000000000000000000, 1.000000000000000000, 0.0000000000000000000 ) ) ;
#277 = ORIENTED_EDGE ( 'NONE', *, *, #2, .T. ) ;
#278 = ADVANCED_FACE ( 'NONE', ( #106 ), #284, .F. ) ;
#279 = EDGE_LOOP ( 'NONE', ( #252, #108 ) ) ;
#280 = CARTESIAN_POINT ( 'NONE',  ( 1.316288464743861212E-13, -4.616918432785521081E-15, 37.69999999999999574 ) ) ;
#281 = DIRECTION ( 'NONE',  ( 0.0000000000000000000, 1.000000000000000000, 0.0000000000000000000 ) ) ;
#282 = ADVANCED_FACE ( 'NONE', ( #85 ), #271, .T. ) ;
#283 = DIRECTION ( 'NONE',  ( 3.491481338843133355E-15, -1.224646799147353207E-16, 1.000000000000000000 ) ) ;
#284 = PLANE ( 'NONE',  #145 ) ;
#285 = VERTEX_POINT ( 'NONE', #193 ) ;
#286 =( LENGTH_UNIT ( ) NAMED_UNIT ( * ) SI_UNIT ( .MILLI., .METRE. ) );
#287 = AXIS2_PLACEMENT_3D ( 'NONE', #263, #219, #67 ) ;
ENDSEC;
END-ISO-10303-21;
