ISO-10303-21;
HEADER;
FILE_DESCRIPTION (( 'STEP AP203' ),
    '1' );
FILE_NAME ('43233.step',
    '2021-09-21T07:37:57',
    ( '' ),
    ( '' ),
    'SwSTEP 2.0',
    'SolidWorks 2019',
    '' );
FILE_SCHEMA (( 'CONFIG_CONTROL_DESIGN' ));
ENDSEC;

DATA;
#1 = VERTEX_POINT ( 'NONE', #120 ) ;
#2 = APPROVAL_ROLE ( '' ) ;
#3 = VERTEX_POINT ( 'NONE', #166 ) ;
#4 = PERSON_AND_ORGANIZATION_ROLE ( 'design_owner' ) ;
#5 = CARTESIAN_POINT ( 'NONE',  ( 2.513866563967056016E-13, -8.817456953860941711E-15, 72.00000000000000000 ) ) ;
#6 = APPROVAL ( #259, 'UNSPECIFIED' ) ;
#7 = PRODUCT_DEFINITION_SHAPE ( 'NONE', 'NONE',  #151 ) ;
#8 = VECTOR ( 'NONE', #140, 1000.000000000000000 ) ;
#9 = DIRECTION ( 'NONE',  ( -2.468850131082266527E-15, 0.7071067811865473507, -0.7071067811865477948 ) ) ;
#10 = DESIGN_CONTEXT ( 'detailed design', #219, 'design' ) ;
#11 = COORDINATED_UNIVERSAL_TIME_OFFSET ( 1, 0, .AHEAD. ) ;
#12 = CARTESIAN_POINT ( 'NONE',  ( 1.745740669421582770E-14, -6.123233995736822489E-16, 5.000000000000046185 ) ) ;
#13 = CARTESIAN_POINT ( 'NONE',  ( 2.137915722948478778E-30, 4.999999999999998224, 6.123233995736764310E-16 ) ) ;
#14 = EDGE_CURVE ( 'NONE', #158, #261, #63, .T. ) ;
#15 = CARTESIAN_POINT ( 'NONE',  ( 1.332886142756127432E-13, -4.999999999999992895, 5.000000000000045297 ) ) ;
#16 = CIRCLE ( 'NONE', #141, 4.999999999999992006 ) ;
#17 = PRODUCT ( '43233', '43233', '', ( #153 ) ) ;
#18 = CARTESIAN_POINT ( 'NONE',  ( 1.745740669421584664E-14, 8.673617379884138024E-16, 5.000000000000051514 ) ) ;
#19 = CIRCLE ( 'NONE', #255, 5.000000000000004441 ) ;
#20 = FACE_OUTER_BOUND ( 'NONE', #113, .T. ) ;
#21 = CC_DESIGN_PERSON_AND_ORGANIZATION_ASSIGNMENT ( #93, #4, ( #17 ) ) ;
#22 = DATE_AND_TIME ( #43, #199 ) ;
#23 = ORIENTED_EDGE ( 'NONE', *, *, #206, .T. ) ;
#24 = VECTOR ( 'NONE', #80, 1000.000000000000000 ) ;
#25 = APPROVAL ( #108, 'UNSPECIFIED' ) ;
#26 = EDGE_LOOP ( 'NONE', ( #198, #70 ) ) ;
#27 = CARTESIAN_POINT ( 'NONE',  ( 0.0000000000000000000, 0.0000000000000000000, 0.0000000000000000000 ) ) ;
#28 = LOCAL_TIME ( 9, 37, 57.00000000000000000, #196 ) ;
#29 = CARTESIAN_POINT ( 'NONE',  ( 1.745740669421582455E-14, -4.999999999999992895, 5.000000000000045297 ) ) ;
#30 = CALENDAR_DATE ( 2021, 21, 9 ) ;
#31 = PERSON_AND_ORGANIZATION_ROLE ( 'creator' ) ;
#32 = DATE_TIME_ROLE ( 'creation_date' ) ;
#33 = AXIS2_PLACEMENT_3D ( 'NONE', #27, #109, #162 ) ;
#34 = CARTESIAN_POINT ( 'NONE',  ( 2.513866563967056016E-13, -8.817456953860941711E-15, 72.00000000000000000 ) ) ;
#35 = CC_DESIGN_SECURITY_CLASSIFICATION ( #122, ( #165 ) ) ;
#36 = DIRECTION ( 'NONE',  ( -6.162975822039164364E-31, -1.000000000000000000, -1.734723475976809806E-16 ) ) ;
#37 = DIRECTION ( 'NONE',  ( -3.491481338843133355E-15, 1.224646799147353207E-16, -1.000000000000000000 ) ) ;
#38 = LINE ( 'NONE', #213, #277 ) ;
#39 = CC_DESIGN_PERSON_AND_ORGANIZATION_ASSIGNMENT ( #270, #204, ( #122 ) ) ;
#40 = APPROVAL_PERSON_ORGANIZATION ( #86, #6, #150 ) ;
#41 = CARTESIAN_POINT ( 'NONE',  ( 1.745740669421582770E-14, -6.123233995736822489E-16, 5.000000000000046185 ) ) ;
#42 = ADVANCED_FACE ( 'NONE', ( #230 ), #83, .T. ) ;
#43 = CALENDAR_DATE ( 2021, 21, 9 ) ;
#44 = EDGE_LOOP ( 'NONE', ( #92, #200, #221, #65 ) ) ;
#45 = EDGE_LOOP ( 'NONE', ( #104, #107 ) ) ;
#46 = CC_DESIGN_APPROVAL ( #25, ( #122 ) ) ;
#47 = CALENDAR_DATE ( 2021, 21, 9 ) ;
#48 = ORIENTED_EDGE ( 'NONE', *, *, #71, .T. ) ;
#49 = ORIENTED_EDGE ( 'NONE', *, *, #245, .F. ) ;
#50 = CALENDAR_DATE ( 2021, 21, 9 ) ;
#51 = CARTESIAN_POINT ( 'NONE',  ( 2.513866563967056016E-13, 3.999999999999995559, 72.00000000000000000 ) ) ;
#52 = ADVANCED_FACE ( 'NONE', ( #247 ), #202, .T. ) ;
#53 = VERTEX_POINT ( 'NONE', #97 ) ;
#54 = DIRECTION ( 'NONE',  ( -3.491481338843133355E-15, 1.224646799147353207E-16, -1.000000000000000000 ) ) ;
#55 = AXIS2_PLACEMENT_3D ( 'NONE', #85, #146, #237 ) ;
#56 = PLANE ( 'NONE',  #278 ) ;
#57 = MANIFOLD_SOLID_BREP ( 'Corps-Déplacer/Copier1[1]', #149 ) ;
#58 =( NAMED_UNIT ( * ) PLANE_ANGLE_UNIT ( ) SI_UNIT ( $, .RADIAN. ) );
#59 = LINE ( 'NONE', #81, #24 ) ;
#60 = CC_DESIGN_PERSON_AND_ORGANIZATION_ASSIGNMENT ( #152, #95, ( #165 ) ) ;
#61 = DIRECTION ( 'NONE',  ( -3.491481338843133355E-15, 1.224646799147353207E-16, -1.000000000000000000 ) ) ;
#62 = FACE_OUTER_BOUND ( 'NONE', #64, .T. ) ;
#63 = CIRCLE ( 'NONE', #102, 4.999999999999992006 ) ;
#64 = EDGE_LOOP ( 'NONE', ( #242, #90 ) ) ;
#65 = ORIENTED_EDGE ( 'NONE', *, *, #201, .F. ) ;
#66 = LOCAL_TIME ( 9, 37, 57.00000000000000000, #197 ) ;
#67 = ADVANCED_FACE ( 'NONE', ( #184 ), #272, .T. ) ;
#68 = VERTEX_POINT ( 'NONE', #138 ) ;
#69 = ADVANCED_BREP_SHAPE_REPRESENTATION ( '43233', ( #57, #243, #33 ), #192 ) ;
#70 = ORIENTED_EDGE ( 'NONE', *, *, #91, .F. ) ;
#71 = EDGE_CURVE ( 'NONE', #68, #158, #251, .T. ) ;
#72 = VERTEX_POINT ( 'NONE', #233 ) ;
#73 = ORGANIZATION ( 'UNSPECIFIED', 'UNSPECIFIED', '' ) ;
#74 = DIRECTION ( 'NONE',  ( 4.275831445896959482E-31, 1.000000000000000000, 1.224646799147353207E-16 ) ) ;
#75 = DIRECTION ( 'NONE',  ( -3.491481338843133355E-15, 1.224646799147353207E-16, -1.000000000000000000 ) ) ;
#76 = SECURITY_CLASSIFICATION_LEVEL ( 'unclassified' ) ;
#77 = DIRECTION ( 'NONE',  ( -3.491481338843133355E-15, 1.224646799147353207E-16, -1.000000000000000000 ) ) ;
#78 = CC_DESIGN_APPROVAL ( #6, ( #165 ) ) ;
#79 = DIRECTION ( 'NONE',  ( -3.491481338843133355E-15, 1.224646799147353207E-16, -1.000000000000000000 ) ) ;
#80 = DIRECTION ( 'NONE',  ( 2.555445736705827812E-15, 0.7071067811865435759, 0.7071067811865514585 ) ) ;
#81 = CARTESIAN_POINT ( 'NONE',  ( 1.806973009378950660E-14, 4.999999999999991118, 5.000000000000047073 ) ) ;
#82 = EDGE_CURVE ( 'NONE', #53, #129, #117, .T. ) ;
#83 = CONICAL_SURFACE ( 'NONE', #250, 4.000000000000004441, 0.7853981633974479459 ) ;
#84 = LINE ( 'NONE', #170, #172 ) ;
#85 = CARTESIAN_POINT ( 'NONE',  ( 2.513866563967056016E-13, -8.817456953860941711E-15, 72.00000000000000000 ) ) ;
#86 = PERSON_AND_ORGANIZATION ( #133, #73 ) ;
#87 = CLOSED_SHELL ( 'NONE', ( #253, #111, #131 ) ) ;
#88 = ORIENTED_EDGE ( 'NONE', *, *, #286, .T. ) ;
#89 = DATE_AND_TIME ( #50, #28 ) ;
#90 = ORIENTED_EDGE ( 'NONE', *, *, #14, .T. ) ;
#91 = EDGE_CURVE ( 'NONE', #129, #53, #98, .T. ) ;
#92 = ORIENTED_EDGE ( 'NONE', *, *, #82, .T. ) ;
#93 = PERSON_AND_ORGANIZATION ( #133, #73 ) ;
#94 = CARTESIAN_POINT ( 'NONE',  ( 0.0000000000000000000, 0.0000000000000000000, 0.0000000000000000000 ) ) ;
#95 = PERSON_AND_ORGANIZATION_ROLE ( 'design_supplier' ) ;
#96 = DIRECTION ( 'NONE',  ( -4.275831445896958607E-31, -1.000000000000000000, -1.224646799147353207E-16 ) ) ;
#97 = CARTESIAN_POINT ( 'NONE',  ( 2.513866563967056016E-13, 3.999999999999995559, 72.00000000000000000 ) ) ;
#98 = CIRCLE ( 'NONE', #262, 4.000000000000004441 ) ;
#99 = DIRECTION ( 'NONE',  ( -3.491481338843133355E-15, 1.224646799147353207E-16, -1.000000000000000000 ) ) ;
#100 = CC_DESIGN_PERSON_AND_ORGANIZATION_ASSIGNMENT ( #137, #31, ( #151 ) ) ;
#101 = DIRECTION ( 'NONE',  ( -2.382254525458717469E-15, -0.7071067811865471286, -0.7071067811865479058 ) ) ;
#102 = AXIS2_PLACEMENT_3D ( 'NONE', #12, #99, #182 ) ;
#103 = CARTESIAN_POINT ( 'NONE',  ( 1.745740669421582770E-14, -6.123233995736822489E-16, 5.000000000000046185 ) ) ;
#104 = ORIENTED_EDGE ( 'NONE', *, *, #273, .F. ) ;
#105 = VECTOR ( 'NONE', #77, 1000.000000000000000 ) ;
#106 = CC_DESIGN_PERSON_AND_ORGANIZATION_ASSIGNMENT ( #128, #218, ( #165 ) ) ;
#107 = ORIENTED_EDGE ( 'NONE', *, *, #206, .F. ) ;
#108 = APPROVAL_STATUS ( 'not_yet_approved' ) ;
#109 = DIRECTION ( 'NONE',  ( 0.0000000000000000000, 0.0000000000000000000, 1.000000000000000000 ) ) ;
#110 = VERTEX_POINT ( 'NONE', #29 ) ;
#111 = ADVANCED_FACE ( 'NONE', ( #208 ), #224, .T. ) ;
#112 = AXIS2_PLACEMENT_3D ( 'NONE', #41, #171, #217 ) ;
#113 = EDGE_LOOP ( 'NONE', ( #49, #88, #23 ) ) ;
#114 = CARTESIAN_POINT ( 'NONE',  ( 6.123233995736742617E-16, -4.999999999999998224, -6.123233995736785018E-16 ) ) ;
#115 = CALENDAR_DATE ( 2021, 21, 9 ) ;
#116 = FACE_OUTER_BOUND ( 'NONE', #45, .T. ) ;
#117 = CIRCLE ( 'NONE', #231, 4.000000000000004441 ) ;
#118 = DIRECTION ( 'NONE',  ( 0.0000000000000000000, 1.000000000000000000, 0.0000000000000000000 ) ) ;
#119 = DIRECTION ( 'NONE',  ( -3.491481338843133355E-15, 1.224646799147353207E-16, -1.000000000000000000 ) ) ;
#120 = CARTESIAN_POINT ( 'NONE',  ( 2.478951750578624304E-13, 4.999999999999995559, 71.00000000000000000 ) ) ;
#121 = AXIS2_PLACEMENT_3D ( 'NONE', #232, #163, #36 ) ;
#122 = SECURITY_CLASSIFICATION ( '', '', #76 ) ;
#123 = DIRECTION ( 'NONE',  ( -4.275831445896958607E-31, -1.000000000000000000, -1.224646799147353207E-16 ) ) ;
#124 = PLANE ( 'NONE',  #144 ) ;
#125 = AXIS2_PLACEMENT_3D ( 'NONE', #94, #227, #274 ) ;
#126 = CC_DESIGN_DATE_AND_TIME_ASSIGNMENT ( #223, #240, ( #122 ) ) ;
#127 = FACE_OUTER_BOUND ( 'NONE', #175, .T. ) ;
#128 = PERSON_AND_ORGANIZATION ( #133, #73 ) ;
#129 = VERTEX_POINT ( 'NONE', #228 ) ;
#130 = EDGE_CURVE ( 'NONE', #1, #68, #156, .T. ) ;
#131 = ADVANCED_FACE ( 'NONE', ( #116 ), #56, .T. ) ;
#132 = EDGE_LOOP ( 'NONE', ( #177, #285, #283 ) ) ;
#133 = PERSON ( 'UNSPECIFIED', 'UNSPECIFIED', 'UNSPECIFIED', ('UNSPECIFIED'), ('UNSPECIFIED'), ('UNSPECIFIED') ) ;
#134 = ORIENTED_EDGE ( 'NONE', *, *, #189, .T. ) ;
#135 = AXIS2_PLACEMENT_3D ( 'NONE', #164, #54, #74 ) ;
#136 = SHAPE_DEFINITION_REPRESENTATION ( #7, #69 ) ;
#137 = PERSON_AND_ORGANIZATION ( #133, #73 ) ;
#138 = CARTESIAN_POINT ( 'NONE',  ( 1.332886142756125918E-13, -5.000000000000013323, 71.00000000000000000 ) ) ;
#139 = DATE_AND_TIME ( #47, #66 ) ;
#140 = DIRECTION ( 'NONE',  ( -3.491481338843133355E-15, 1.224646799147353207E-16, -1.000000000000000000 ) ) ;
#141 = AXIS2_PLACEMENT_3D ( 'NONE', #256, #275, #252 ) ;
#142 = APPROVAL_PERSON_ORGANIZATION ( #284, #25, #2 ) ;
#143 = CARTESIAN_POINT ( 'NONE',  ( 1.745740669421584664E-14, 8.673617379884138024E-16, 5.000000000000051514 ) ) ;
#144 = AXIS2_PLACEMENT_3D ( 'NONE', #145, #212, #234 ) ;
#145 = CARTESIAN_POINT ( 'NONE',  ( 2.513866563967056016E-13, 2.999519565323705910E-32, 72.00000000000000000 ) ) ;
#146 = DIRECTION ( 'NONE',  ( -3.491481338843133355E-15, 1.224646799147353207E-16, -1.000000000000000000 ) ) ;
#147 = FACE_OUTER_BOUND ( 'NONE', #26, .T. ) ;
#148 = DIRECTION ( 'NONE',  ( 3.491481338843133355E-15, -1.224646799147353207E-16, 1.000000000000000000 ) ) ;
#149 = CLOSED_SHELL ( 'NONE', ( #42, #67, #226, #52, #264, #269 ) ) ;
#150 = APPROVAL_ROLE ( '' ) ;
#151 = PRODUCT_DEFINITION ( 'UNKNOWN', '', #165, #10 ) ;
#152 = PERSON_AND_ORGANIZATION ( #133, #73 ) ;
#153 = MECHANICAL_CONTEXT ( 'NONE', #249, 'mechanical' ) ;
#154 = AXIS2_PLACEMENT_3D ( 'NONE', #103, #276, #167 ) ;
#155 = ORIENTED_EDGE ( 'NONE', *, *, #130, .T. ) ;
#156 = CIRCLE ( 'NONE', #209, 5.000000000000004441 ) ;
#157 = ORIENTED_EDGE ( 'NONE', *, *, #91, .T. ) ;
#158 = VERTEX_POINT ( 'NONE', #15 ) ;
#159 = LINE ( 'NONE', #51, #181 ) ;
#160 = CIRCLE ( 'NONE', #112, 4.999999999999992006 ) ;
#161 = CARTESIAN_POINT ( 'NONE',  ( 2.513866563967056016E-13, -8.817456953860941711E-15, 72.00000000000000000 ) ) ;
#162 = DIRECTION ( 'NONE',  ( 1.000000000000000000, 0.0000000000000000000, 0.0000000000000000000 ) ) ;
#163 = DIRECTION ( 'NONE',  ( 3.491481338843133355E-15, -1.224646799147353207E-16, 1.000000000000000000 ) ) ;
#164 = CARTESIAN_POINT ( 'NONE',  ( 0.0000000000000000000, 0.0000000000000000000, 0.0000000000000000000 ) ) ;
#165 = PRODUCT_DEFINITION_FORMATION_WITH_SPECIFIED_SOURCE ( 'ANY', '', #17, .NOT_KNOWN. ) ;
#166 = CARTESIAN_POINT ( 'NONE',  ( 0.0000000000000000000, 0.0000000000000000000, 0.0000000000000000000 ) ) ;
#167 = DIRECTION ( 'NONE',  ( -6.162975822039164364E-31, -1.000000000000000000, -1.734723475976809806E-16 ) ) ;
#168 = CONICAL_SURFACE ( 'NONE', #55, 4.000000000000004441, 0.7853981633974479459 ) ;
#169 = APPROVAL ( #241, 'UNSPECIFIED' ) ;
#170 = CARTESIAN_POINT ( 'NONE',  ( 1.745740669421582455E-14, -4.999999999999992895, 5.000000000000045297 ) ) ;
#171 = DIRECTION ( 'NONE',  ( -3.491481338843133355E-15, 1.224646799147353207E-16, -1.000000000000000000 ) ) ;
#172 = VECTOR ( 'NONE', #190, 999.9999999999998863 ) ;
#173 = APPROVAL_DATE_TIME ( #22, #6 ) ;
#174 = ORIENTED_EDGE ( 'NONE', *, *, #235, .F. ) ;
#175 = EDGE_LOOP ( 'NONE', ( #263, #157, #265, #220 ) ) ;
#176 = ORIENTED_EDGE ( 'NONE', *, *, #187, .T. ) ;
#177 = ORIENTED_EDGE ( 'NONE', *, *, #286, .F. ) ;
#178 = PERSON_AND_ORGANIZATION ( #133, #73 ) ;
#179 = CC_DESIGN_DATE_AND_TIME_ASSIGNMENT ( #229, #32, ( #151 ) ) ;
#180 = CARTESIAN_POINT ( 'NONE',  ( 2.478951750578624304E-13, -8.694992273946206563E-15, 71.00000000000000000 ) ) ;
#181 = VECTOR ( 'NONE', #9, 999.9999999999998863 ) ;
#182 = DIRECTION ( 'NONE',  ( 6.162975822039164364E-31, 1.000000000000000000, 1.734723475976809806E-16 ) ) ;
#183 = DIRECTION ( 'NONE',  ( 0.0000000000000000000, 1.000000000000000000, 0.0000000000000000000 ) ) ;
#184 = FACE_OUTER_BOUND ( 'NONE', #193, .T. ) ;
#185 = PRODUCT_RELATED_PRODUCT_CATEGORY ( 'detail', '', ( #17 ) ) ;
#186 = DIRECTION ( 'NONE',  ( 0.0000000000000000000, 1.000000000000000000, 0.0000000000000000000 ) ) ;
#187 = EDGE_CURVE ( 'NONE', #68, #1, #19, .T. ) ;
#188 = APPROVAL_PERSON_ORGANIZATION ( #178, #169, #267 ) ;
#189 = EDGE_CURVE ( 'NONE', #1, #261, #203, .T. ) ;
#190 = DIRECTION ( 'NONE',  ( 2.468850131082278754E-15, -0.7071067811865439090, 0.7071067811865512365 ) ) ;
#191 = APPLICATION_PROTOCOL_DEFINITION ( 'international standard', 'config_control_design', 1994, #219 ) ;
#192 =( GEOMETRIC_REPRESENTATION_CONTEXT ( 3 ) GLOBAL_UNCERTAINTY_ASSIGNED_CONTEXT ( ( #280 ) ) GLOBAL_UNIT_ASSIGNED_CONTEXT ( ( #257, #58, #210 ) ) REPRESENTATION_CONTEXT ( 'NONE', 'WORKASPACE' ) );
#193 = EDGE_LOOP ( 'NONE', ( #155, #48, #174, #195 ) ) ;
#194 = APPLICATION_PROTOCOL_DEFINITION ( 'international standard', 'config_control_design', 1994, #249 ) ;
#195 = ORIENTED_EDGE ( 'NONE', *, *, #189, .F. ) ;
#196 = COORDINATED_UNIVERSAL_TIME_OFFSET ( 1, 0, .AHEAD. ) ;
#197 = COORDINATED_UNIVERSAL_TIME_OFFSET ( 1, 0, .AHEAD. ) ;
#198 = ORIENTED_EDGE ( 'NONE', *, *, #82, .F. ) ;
#199 = LOCAL_TIME ( 9, 37, 57.00000000000000000, #238 ) ;
#200 = ORIENTED_EDGE ( 'NONE', *, *, #211, .T. ) ;
#201 = EDGE_CURVE ( 'NONE', #53, #1, #159, .T. ) ;
#202 = CYLINDRICAL_SURFACE ( 'NONE', #135, 4.999999999999998224 ) ;
#203 = LINE ( 'NONE', #13, #105 ) ;
#204 = PERSON_AND_ORGANIZATION_ROLE ( 'classification_officer' ) ;
#205 = DIRECTION ( 'NONE',  ( 0.0000000000000000000, 1.000000000000000000, 0.0000000000000000000 ) ) ;
#206 = EDGE_CURVE ( 'NONE', #72, #110, #258, .T. ) ;
#207 = DIRECTION ( 'NONE',  ( -3.491481338843133355E-15, 1.224646799147353207E-16, -1.000000000000000000 ) ) ;
#208 = FACE_OUTER_BOUND ( 'NONE', #132, .T. ) ;
#209 = AXIS2_PLACEMENT_3D ( 'NONE', #180, #207, #205 ) ;
#210 =( NAMED_UNIT ( * ) SI_UNIT ( $, .STERADIAN. ) SOLID_ANGLE_UNIT ( ) );
#211 = EDGE_CURVE ( 'NONE', #129, #68, #38, .T. ) ;
#212 = DIRECTION ( 'NONE',  ( -3.491481338843133355E-15, 1.224646799147353207E-16, -1.000000000000000000 ) ) ;
#213 = CARTESIAN_POINT ( 'NONE',  ( 2.518765151163645422E-13, -4.000000000000013323, 72.00000000000000000 ) ) ;
#214 = CC_DESIGN_APPROVAL ( #169, ( #151 ) ) ;
#215 = LOCAL_TIME ( 9, 37, 57.00000000000000000, #11 ) ;
#216 = DIRECTION ( 'NONE',  ( 6.162975822039164364E-31, 1.000000000000000000, 1.734723475976809806E-16 ) ) ;
#217 = DIRECTION ( 'NONE',  ( 6.162975822039164364E-31, 1.000000000000000000, 1.734723475976809806E-16 ) ) ;
#218 = PERSON_AND_ORGANIZATION_ROLE ( 'creator' ) ;
#219 = APPLICATION_CONTEXT ( 'configuration controlled 3d designs of mechanical parts and assemblies' ) ;
#220 = ORIENTED_EDGE ( 'NONE', *, *, #187, .F. ) ;
#221 = ORIENTED_EDGE ( 'NONE', *, *, #130, .F. ) ;
#222 = ORIENTED_EDGE ( 'NONE', *, *, #71, .F. ) ;
#223 = DATE_AND_TIME ( #30, #215 ) ;
#224 = CONICAL_SURFACE ( 'NONE', #121, 4.999999999999992006, 0.7853981633974428389 ) ;
#225 = EDGE_LOOP ( 'NONE', ( #222, #176, #134, #260 ) ) ;
#226 = ADVANCED_FACE ( 'NONE', ( #62 ), #279, .F. ) ;
#227 = DIRECTION ( 'NONE',  ( -3.491481338843133355E-15, 1.224646799147353207E-16, -1.000000000000000000 ) ) ;
#228 = CARTESIAN_POINT ( 'NONE',  ( 2.501920067869003115E-13, -4.000000000000013323, 72.00000000000000000 ) ) ;
#229 = DATE_AND_TIME ( #115, #287 ) ;
#230 = FACE_OUTER_BOUND ( 'NONE', #44, .T. ) ;
#231 = AXIS2_PLACEMENT_3D ( 'NONE', #5, #75, #271 ) ;
#232 = CARTESIAN_POINT ( 'NONE',  ( 1.745740669421582770E-14, -6.123233995736822489E-16, 5.000000000000046185 ) ) ;
#233 = CARTESIAN_POINT ( 'NONE',  ( 1.806973009378950660E-14, 4.999999999999991118, 5.000000000000047073 ) ) ;
#234 = DIRECTION ( 'NONE',  ( 4.275831445896958607E-31, 1.000000000000000000, 1.224646799147353207E-16 ) ) ;
#235 = EDGE_CURVE ( 'NONE', #261, #158, #16, .T. ) ;
#236 = AXIS2_PLACEMENT_3D ( 'NONE', #281, #61, #216 ) ;
#237 = DIRECTION ( 'NONE',  ( 0.0000000000000000000, 1.000000000000000000, 0.0000000000000000000 ) ) ;
#238 = COORDINATED_UNIVERSAL_TIME_OFFSET ( 1, 0, .AHEAD. ) ;
#239 = COORDINATED_UNIVERSAL_TIME_OFFSET ( 1, 0, .AHEAD. ) ;
#240 = DATE_TIME_ROLE ( 'classification_date' ) ;
#241 = APPROVAL_STATUS ( 'not_yet_approved' ) ;
#242 = ORIENTED_EDGE ( 'NONE', *, *, #235, .T. ) ;
#243 = MANIFOLD_SOLID_BREP ( 'Corps-Déplacer/Copier1[2]', #87 ) ;
#244 = APPROVAL_DATE_TIME ( #89, #25 ) ;
#245 = EDGE_CURVE ( 'NONE', #3, #110, #84, .T. ) ;
#246 = AXIS2_PLACEMENT_3D ( 'NONE', #18, #148, #123 ) ;
#247 = FACE_OUTER_BOUND ( 'NONE', #225, .T. ) ;
#248 = APPROVAL_DATE_TIME ( #139, #169 ) ;
#249 = APPLICATION_CONTEXT ( 'configuration controlled 3d designs of mechanical parts and assemblies' ) ;
#250 = AXIS2_PLACEMENT_3D ( 'NONE', #161, #119, #183 ) ;
#251 = LINE ( 'NONE', #114, #8 ) ;
#252 = DIRECTION ( 'NONE',  ( 6.162975822039164364E-31, 1.000000000000000000, 1.734723475976809806E-16 ) ) ;
#253 = ADVANCED_FACE ( 'NONE', ( #20 ), #282, .T. ) ;
#254 = CARTESIAN_POINT ( 'NONE',  ( 1.745740669421583086E-14, 4.999999999999991118, 5.000000000000047073 ) ) ;
#255 = AXIS2_PLACEMENT_3D ( 'NONE', #266, #37, #186 ) ;
#256 = CARTESIAN_POINT ( 'NONE',  ( 1.745740669421582770E-14, -6.123233995736822489E-16, 5.000000000000046185 ) ) ;
#257 =( LENGTH_UNIT ( ) NAMED_UNIT ( * ) SI_UNIT ( .MILLI., .METRE. ) );
#258 = CIRCLE ( 'NONE', #236, 4.999999999999992006 ) ;
#259 = APPROVAL_STATUS ( 'not_yet_approved' ) ;
#260 = ORIENTED_EDGE ( 'NONE', *, *, #14, .F. ) ;
#261 = VERTEX_POINT ( 'NONE', #254 ) ;
#262 = AXIS2_PLACEMENT_3D ( 'NONE', #34, #79, #118 ) ;
#263 = ORIENTED_EDGE ( 'NONE', *, *, #211, .F. ) ;
#264 = ADVANCED_FACE ( 'NONE', ( #127 ), #168, .T. ) ;
#265 = ORIENTED_EDGE ( 'NONE', *, *, #201, .T. ) ;
#266 = CARTESIAN_POINT ( 'NONE',  ( 2.478951750578624304E-13, -8.694992273946206563E-15, 71.00000000000000000 ) ) ;
#267 = APPROVAL_ROLE ( '' ) ;
#268 = DIRECTION ( 'NONE',  ( 3.491481338843133355E-15, -1.224646799147353207E-16, 1.000000000000000000 ) ) ;
#269 = ADVANCED_FACE ( 'NONE', ( #147 ), #124, .F. ) ;
#270 = PERSON_AND_ORGANIZATION ( #133, #73 ) ;
#271 = DIRECTION ( 'NONE',  ( 0.0000000000000000000, 1.000000000000000000, 0.0000000000000000000 ) ) ;
#272 = CYLINDRICAL_SURFACE ( 'NONE', #125, 4.999999999999998224 ) ;
#273 = EDGE_CURVE ( 'NONE', #110, #72, #160, .T. ) ;
#274 = DIRECTION ( 'NONE',  ( 4.275831445896959482E-31, 1.000000000000000000, 1.224646799147353207E-16 ) ) ;
#275 = DIRECTION ( 'NONE',  ( -3.491481338843133355E-15, 1.224646799147353207E-16, -1.000000000000000000 ) ) ;
#276 = DIRECTION ( 'NONE',  ( 3.491481338843133355E-15, -1.224646799147353207E-16, 1.000000000000000000 ) ) ;
#277 = VECTOR ( 'NONE', #101, 1000.000000000000000 ) ;
#278 = AXIS2_PLACEMENT_3D ( 'NONE', #143, #268, #96 ) ;
#279 = PLANE ( 'NONE',  #246 ) ;
#280 = UNCERTAINTY_MEASURE_WITH_UNIT (LENGTH_MEASURE( 1.000000000000000082E-05 ), #257, 'distance_accuracy_value', 'NONE');
#281 = CARTESIAN_POINT ( 'NONE',  ( 1.745740669421582770E-14, -6.123233995736822489E-16, 5.000000000000046185 ) ) ;
#282 = CONICAL_SURFACE ( 'NONE', #154, 4.999999999999992006, 0.7853981633974428389 ) ;
#283 = ORIENTED_EDGE ( 'NONE', *, *, #273, .T. ) ;
#284 = PERSON_AND_ORGANIZATION ( #133, #73 ) ;
#285 = ORIENTED_EDGE ( 'NONE', *, *, #245, .T. ) ;
#286 = EDGE_CURVE ( 'NONE', #3, #72, #59, .T. ) ;
#287 = LOCAL_TIME ( 9, 37, 57.00000000000000000, #239 ) ;
ENDSEC;
END-ISO-10303-21;
