ISO-10303-21;
HEADER;
FILE_DESCRIPTION (( 'STEP AP203' ),
    '1' );
FILE_NAME ('43231.step',
    '2021-09-21T07:37:57',
    ( '' ),
    ( '' ),
    'SwSTEP 2.0',
    'SolidWorks 2019',
    '' );
FILE_SCHEMA (( 'CONFIG_CONTROL_DESIGN' ));
ENDSEC;

DATA;
#1 = PERSON_AND_ORGANIZATION ( #2, #166 ) ;
#2 = PERSON ( 'UNSPECIFIED', 'UNSPECIFIED', 'UNSPECIFIED', ('UNSPECIFIED'), ('UNSPECIFIED'), ('UNSPECIFIED') ) ;
#3 = ORIENTED_EDGE ( 'NONE', *, *, #285, .T. ) ;
#4 = APPROVAL_STATUS ( 'not_yet_approved' ) ;
#5 = DIRECTION ( 'NONE',  ( -2.382254525458723780E-15, -0.7071067811865453523, -0.7071067811865496822 ) ) ;
#6 = PERSON_AND_ORGANIZATION_ROLE ( 'creator' ) ;
#7 = AXIS2_PLACEMENT_3D ( 'NONE', #115, #92, #203 ) ;
#8 = CC_DESIGN_PERSON_AND_ORGANIZATION_ASSIGNMENT ( #241, #6, ( #97 ) ) ;
#9 = APPROVAL_PERSON_ORGANIZATION ( #242, #269, #133 ) ;
#10 = DIRECTION ( 'NONE',  ( -3.491481338843133355E-15, 1.224646799147352961E-16, -1.000000000000000000 ) ) ;
#11 = DESIGN_CONTEXT ( 'detailed design', #256, 'design' ) ;
#12 = COORDINATED_UNIVERSAL_TIME_OFFSET ( 1, 0, .AHEAD. ) ;
#13 = DIRECTION ( 'NONE',  ( 5.135813185032643538E-31, 1.000000000000000000, 1.445602896647343354E-16 ) ) ;
#14 = CARTESIAN_POINT ( 'NONE',  ( 0.0000000000000000000, 0.0000000000000000000, 0.0000000000000000000 ) ) ;
#15 = ADVANCED_FACE ( 'NONE', ( #164 ), #220, .T. ) ;
#16 = CARTESIAN_POINT ( 'NONE',  ( 1.328232484919367446E-13, -1.199999999999999289, 38.00000000000000000 ) ) ;
#17 = CARTESIAN_POINT ( 'NONE',  ( 1.326762908760390423E-13, 1.199999999999990186, 38.00000000000000000 ) ) ;
#18 = DIRECTION ( 'NONE',  ( 4.275831445896957731E-31, 1.000000000000000000, 1.224646799147352961E-16 ) ) ;
#19 = EDGE_CURVE ( 'NONE', #262, #194, #80, .T. ) ;
#20 = PERSON_AND_ORGANIZATION ( #2, #166 ) ;
#21 = ORIENTED_EDGE ( 'NONE', *, *, #224, .F. ) ;
#22 = VERTEX_POINT ( 'NONE', #112 ) ;
#23 = ORIENTED_EDGE ( 'NONE', *, *, #54, .T. ) ;
#24 = CIRCLE ( 'NONE', #110, 1.199999999999994627 ) ;
#25 = AXIS2_PLACEMENT_3D ( 'NONE', #98, #140, #236 ) ;
#26 = ORIENTED_EDGE ( 'NONE', *, *, #105, .T. ) ;
#27 = DIRECTION ( 'NONE',  ( -3.491481338843133355E-15, 1.224646799147352961E-16, -1.000000000000000000 ) ) ;
#28 = CALENDAR_DATE ( 2021, 21, 9 ) ;
#29 = DATE_AND_TIME ( #42, #30 ) ;
#30 = LOCAL_TIME ( 9, 37, 57.00000000000000000, #227 ) ;
#31 = DIRECTION ( 'NONE',  ( 0.0000000000000000000, 1.000000000000000000, 0.0000000000000000000 ) ) ;
#32 = FACE_OUTER_BOUND ( 'NONE', #196, .T. ) ;
#33 = DIRECTION ( 'NONE',  ( -5.135813185032643538E-31, -1.000000000000000000, -1.445602896647343354E-16 ) ) ;
#34 = ADVANCED_FACE ( 'NONE', ( #32 ), #114, .F. ) ;
#35 = DIRECTION ( 'NONE',  ( -3.491481338843133355E-15, 1.224646799147352961E-16, -1.000000000000000000 ) ) ;
#36 = CYLINDRICAL_SURFACE ( 'NONE', #25, 1.499999999999995337 ) ;
#37 = EDGE_CURVE ( 'NONE', #216, #22, #134, .T. ) ;
#38 = APPROVAL_DATE_TIME ( #29, #269 ) ;
#39 = ORIENTED_EDGE ( 'NONE', *, *, #124, .F. ) ;
#40 = SHAPE_DEFINITION_REPRESENTATION ( #187, #223 ) ;
#41 = CC_DESIGN_APPROVAL ( #269, ( #125 ) ) ;
#42 = CALENDAR_DATE ( 2021, 21, 9 ) ;
#43 = ORIENTED_EDGE ( 'NONE', *, *, #19, .F. ) ;
#44 = ORIENTED_EDGE ( 'NONE', *, *, #246, .F. ) ;
#45 = VERTEX_POINT ( 'NONE', #200 ) ;
#46 = DIRECTION ( 'NONE',  ( -5.135813185032643538E-31, -1.000000000000000000, -1.445602896647343354E-16 ) ) ;
#47 = ADVANCED_FACE ( 'NONE', ( #225 ), #286, .T. ) ;
#48 = APPROVAL_STATUS ( 'not_yet_approved' ) ;
#49 = DIRECTION ( 'NONE',  ( 0.0000000000000000000, 0.0000000000000000000, 1.000000000000000000 ) ) ;
#50 = DIRECTION ( 'NONE',  ( -3.491481338843133355E-15, 1.224646799147352961E-16, -1.000000000000000000 ) ) ;
#51 = LINE ( 'NONE', #16, #70 ) ;
#52 = DIRECTION ( 'NONE',  ( 3.491481338843133355E-15, -1.224646799147352961E-16, 1.000000000000000000 ) ) ;
#53 =( LENGTH_UNIT ( ) NAMED_UNIT ( * ) SI_UNIT ( .MILLI., .METRE. ) );
#54 = EDGE_CURVE ( 'NONE', #64, #222, #94, .T. ) ;
#55 = FACE_OUTER_BOUND ( 'NONE', #176, .T. ) ;
#56 = CARTESIAN_POINT ( 'NONE',  ( 1.316288464743861212E-13, -4.616918432785520292E-15, 37.69999999999999574 ) ) ;
#57 = CIRCLE ( 'NONE', #95, 1.499999999999994671 ) ;
#58 = APPROVAL ( #48, 'UNSPECIFIED' ) ;
#59 = ORIENTED_EDGE ( 'NONE', *, *, #235, .F. ) ;
#60 = LOCAL_TIME ( 9, 37, 57.00000000000000000, #155 ) ;
#61 = CC_DESIGN_PERSON_AND_ORGANIZATION_ASSIGNMENT ( #20, #270, ( #125 ) ) ;
#62 = EDGE_LOOP ( 'NONE', ( #59, #3, #23 ) ) ;
#63 = ADVANCED_FACE ( 'NONE', ( #132 ), #186, .T. ) ;
#64 = VERTEX_POINT ( 'NONE', #90 ) ;
#65 = CC_DESIGN_APPROVAL ( #74, ( #97 ) ) ;
#66 = DIRECTION ( 'NONE',  ( -3.491481338843133355E-15, 1.224646799147352961E-16, -1.000000000000000000 ) ) ;
#67 = LINE ( 'NONE', #206, #169 ) ;
#68 = PERSON_AND_ORGANIZATION ( #2, #166 ) ;
#69 = DIRECTION ( 'NONE',  ( -3.491481338843133355E-15, 1.224646799147352961E-16, -1.000000000000000000 ) ) ;
#70 = VECTOR ( 'NONE', #5, 1000.000000000000000 ) ;
#71 = FACE_OUTER_BOUND ( 'NONE', #62, .T. ) ;
#72 =( NAMED_UNIT ( * ) PLANE_ANGLE_UNIT ( ) SI_UNIT ( $, .RADIAN. ) );
#73 = LINE ( 'NONE', #102, #151 ) ;
#74 = APPROVAL ( #4, 'UNSPECIFIED' ) ;
#75 = DIRECTION ( 'NONE',  ( -3.491481338843133355E-15, 1.224646799147352961E-16, -1.000000000000000000 ) ) ;
#76 = CC_DESIGN_SECURITY_CLASSIFICATION ( #254, ( #125 ) ) ;
#77 = CARTESIAN_POINT ( 'NONE',  ( 5.237222008264742631E-15, -1.836970198721044232E-16, 1.500000000000012212 ) ) ;
#78 = CARTESIAN_POINT ( 'NONE',  ( 5.420919028136846142E-15, 1.499999999999995559, 1.500000000000012434 ) ) ;
#79 = MECHANICAL_CONTEXT ( 'NONE', #136, 'mechanical' ) ;
#80 = CIRCLE ( 'NONE', #103, 1.199999999999994627 ) ;
#81 = CONICAL_SURFACE ( 'NONE', #221, 1.499999999999995781, 0.7853981633974428389 ) ;
#82 = ORIENTED_EDGE ( 'NONE', *, *, #274, .F. ) ;
#83 = ORIENTED_EDGE ( 'NONE', *, *, #285, .F. ) ;
#84 = AXIS2_PLACEMENT_3D ( 'NONE', #77, #119, #280 ) ;
#85 = ORIENTED_EDGE ( 'NONE', *, *, #197, .F. ) ;
#86 = EDGE_CURVE ( 'NONE', #194, #262, #24, .T. ) ;
#87 = VERTEX_POINT ( 'NONE', #268 ) ;
#88 = DATE_TIME_ROLE ( 'creation_date' ) ;
#89 = VECTOR ( 'NONE', #99, 1000.000000000000000 ) ;
#90 = CARTESIAN_POINT ( 'NONE',  ( 5.420919028136846142E-15, 1.499999999999995559, 1.500000000000012434 ) ) ;
#91 = SECURITY_CLASSIFICATION_LEVEL ( 'unclassified' ) ;
#92 = DIRECTION ( 'NONE',  ( 3.491481338843133355E-15, -1.224646799147352961E-16, 1.000000000000000000 ) ) ;
#93 = FACE_OUTER_BOUND ( 'NONE', #153, .T. ) ;
#94 = CIRCLE ( 'NONE', #138, 1.499999999999995781 ) ;
#95 = AXIS2_PLACEMENT_3D ( 'NONE', #56, #214, #101 ) ;
#96 = CARTESIAN_POINT ( 'NONE',  ( 5.237222008264752098E-15, 2.168404344971036232E-16, 1.500000000000014877 ) ) ;
#97 = PRODUCT_DEFINITION ( 'UNKNOWN', '', #125, #11 ) ;
#98 = CARTESIAN_POINT ( 'NONE',  ( 0.0000000000000000000, 0.0000000000000000000, 0.0000000000000000000 ) ) ;
#99 = DIRECTION ( 'NONE',  ( 2.468850131082278754E-15, -0.7071067811865437980, 0.7071067811865513475 ) ) ;
#100 = APPROVAL_PERSON_ORGANIZATION ( #191, #74, #146 ) ;
#101 = DIRECTION ( 'NONE',  ( 0.0000000000000000000, 1.000000000000000000, 0.0000000000000000000 ) ) ;
#102 = CARTESIAN_POINT ( 'NONE',  ( 6.413747168845416015E-31, 1.499999999999995337, 1.836970198721023525E-16 ) ) ;
#103 = AXIS2_PLACEMENT_3D ( 'NONE', #228, #10, #31 ) ;
#104 = ORIENTED_EDGE ( 'NONE', *, *, #224, .T. ) ;
#105 = EDGE_CURVE ( 'NONE', #22, #87, #201, .T. ) ;
#106 = PERSON_AND_ORGANIZATION_ROLE ( 'design_owner' ) ;
#107 = ORIENTED_EDGE ( 'NONE', *, *, #109, .T. ) ;
#108 = DATE_AND_TIME ( #219, #243 ) ;
#109 = EDGE_CURVE ( 'NONE', #194, #283, #67, .T. ) ;
#110 = AXIS2_PLACEMENT_3D ( 'NONE', #181, #27, #247 ) ;
#111 = ORIENTED_EDGE ( 'NONE', *, *, #105, .F. ) ;
#112 = CARTESIAN_POINT ( 'NONE',  ( 6.861673126119755435E-14, -1.499999999999996225, 1.500000000000011990 ) ) ;
#113 = APPLICATION_PROTOCOL_DEFINITION ( 'international standard', 'config_control_design', 1994, #256 ) ;
#114 = PLANE ( 'NONE',  #7 ) ;
#115 = CARTESIAN_POINT ( 'NONE',  ( 5.237222008264752098E-15, 2.168404344971036232E-16, 1.500000000000014877 ) ) ;
#116 = PLANE ( 'NONE',  #120 ) ;
#117 = CARTESIAN_POINT ( 'NONE',  ( 5.237222008264742631E-15, -1.836970198721044232E-16, 1.500000000000012212 ) ) ;
#118 = CARTESIAN_POINT ( 'NONE',  ( 5.237222008264741843E-15, -1.499999999999996003, 1.500000000000011990 ) ) ;
#119 = DIRECTION ( 'NONE',  ( -3.491481338843133355E-15, 1.224646799147352961E-16, -1.000000000000000000 ) ) ;
#120 = AXIS2_PLACEMENT_3D ( 'NONE', #96, #205, #179 ) ;
#121 = DIRECTION ( 'NONE',  ( 2.555445736705828206E-15, 0.7071067811865435759, 0.7071067811865515695 ) ) ;
#122 = CARTESIAN_POINT ( 'NONE',  ( 0.0000000000000000000, 0.0000000000000000000, 0.0000000000000000000 ) ) ;
#123 = ORIENTED_EDGE ( 'NONE', *, *, #124, .T. ) ;
#124 = EDGE_CURVE ( 'NONE', #262, #216, #51, .T. ) ;
#125 = PRODUCT_DEFINITION_FORMATION_WITH_SPECIFIED_SOURCE ( 'ANY', '', #231, .NOT_KNOWN. ) ;
#126 = PERSON_AND_ORGANIZATION_ROLE ( 'creator' ) ;
#127 = ADVANCED_FACE ( 'NONE', ( #93 ), #116, .T. ) ;
#128 = EDGE_LOOP ( 'NONE', ( #284, #123, #174, #171 ) ) ;
#129 = ORIENTED_EDGE ( 'NONE', *, *, #54, .F. ) ;
#130 = APPROVAL_PERSON_ORGANIZATION ( #1, #58, #245 ) ;
#131 = COORDINATED_UNIVERSAL_TIME_OFFSET ( 1, 0, .AHEAD. ) ;
#132 = FACE_OUTER_BOUND ( 'NONE', #257, .T. ) ;
#133 = APPROVAL_ROLE ( '' ) ;
#134 = LINE ( 'NONE', #161, #229 ) ;
#135 = CARTESIAN_POINT ( 'NONE',  ( 5.237222008264742631E-15, -1.836970198721044232E-16, 1.500000000000012212 ) ) ;
#136 = APPLICATION_CONTEXT ( 'configuration controlled 3d designs of mechanical parts and assemblies' ) ;
#137 =( NAMED_UNIT ( * ) SI_UNIT ( $, .STERADIAN. ) SOLID_ANGLE_UNIT ( ) );
#138 = AXIS2_PLACEMENT_3D ( 'NONE', #135, #50, #13 ) ;
#139 = AXIS2_PLACEMENT_3D ( 'NONE', #117, #69, #275 ) ;
#140 = DIRECTION ( 'NONE',  ( -3.491481338843133355E-15, 1.224646799147352961E-16, -1.000000000000000000 ) ) ;
#141 = CARTESIAN_POINT ( 'NONE',  ( 1.316288464743861212E-13, -4.616918432785520292E-15, 37.69999999999999574 ) ) ;
#142 = MANIFOLD_SOLID_BREP ( 'Corps-Déplacer/Copier1[2]', #278 ) ;
#143 = CARTESIAN_POINT ( 'NONE',  ( 1.323178959930974653E-13, -1.199999999999999289, 38.00000000000000000 ) ) ;
#144 = MANIFOLD_SOLID_BREP ( 'Corps-Déplacer/Copier1[1]', #234 ) ;
#145 = CARTESIAN_POINT ( 'NONE',  ( 1.326762908760390423E-13, 8.998558695971033434E-33, 38.00000000000000000 ) ) ;
#146 = APPROVAL_ROLE ( '' ) ;
#147 = CC_DESIGN_PERSON_AND_ORGANIZATION_ASSIGNMENT ( #255, #106, ( #231 ) ) ;
#148 = DATE_AND_TIME ( #193, #180 ) ;
#149 = CALENDAR_DATE ( 2021, 21, 9 ) ;
#150 = EDGE_LOOP ( 'NONE', ( #172, #258, #190, #111 ) ) ;
#151 = VECTOR ( 'NONE', #165, 1000.000000000000000 ) ;
#152 = EDGE_LOOP ( 'NONE', ( #39, #192, #107, #44 ) ) ;
#153 = EDGE_LOOP ( 'NONE', ( #21, #129 ) ) ;
#154 = DIRECTION ( 'NONE',  ( -3.491481338843133355E-15, 1.224646799147352961E-16, -1.000000000000000000 ) ) ;
#155 = COORDINATED_UNIVERSAL_TIME_OFFSET ( 1, 0, .AHEAD. ) ;
#156 = LOCAL_TIME ( 9, 37, 57.00000000000000000, #267 ) ;
#157 = DIRECTION ( 'NONE',  ( 0.0000000000000000000, 1.000000000000000000, 0.0000000000000000000 ) ) ;
#158 = PRODUCT_RELATED_PRODUCT_CATEGORY ( 'detail', '', ( #231 ) ) ;
#159 = DATE_AND_TIME ( #149, #156 ) ;
#160 = DIRECTION ( 'NONE',  ( 3.491481338843133355E-15, -1.224646799147352961E-16, 1.000000000000000000 ) ) ;
#161 = CARTESIAN_POINT ( 'NONE',  ( 1.836970198721017855E-16, -1.499999999999995337, -1.836970198721029934E-16 ) ) ;
#162 = AXIS2_PLACEMENT_3D ( 'NONE', #182, #66, #157 ) ;
#163 = CC_DESIGN_APPROVAL ( #58, ( #254 ) ) ;
#164 = FACE_OUTER_BOUND ( 'NONE', #128, .T. ) ;
#165 = DIRECTION ( 'NONE',  ( -3.491481338843133355E-15, 1.224646799147352961E-16, -1.000000000000000000 ) ) ;
#166 = ORGANIZATION ( 'UNSPECIFIED', 'UNSPECIFIED', '' ) ;
#167 = CC_DESIGN_PERSON_AND_ORGANIZATION_ASSIGNMENT ( #215, #126, ( #125 ) ) ;
#168 = CARTESIAN_POINT ( 'NONE',  ( 5.237222008264742631E-15, -1.836970198721044232E-16, 1.500000000000012212 ) ) ;
#169 = VECTOR ( 'NONE', #198, 1000.000000000000114 ) ;
#170 = DIRECTION ( 'NONE',  ( 1.000000000000000000, 0.0000000000000000000, 0.0000000000000000000 ) ) ;
#171 = ORIENTED_EDGE ( 'NONE', *, *, #109, .F. ) ;
#172 = ORIENTED_EDGE ( 'NONE', *, *, #37, .F. ) ;
#173 = EDGE_LOOP ( 'NONE', ( #195, #218, #85, #82 ) ) ;
#174 = ORIENTED_EDGE ( 'NONE', *, *, #261, .F. ) ;
#175 = DATE_AND_TIME ( #28, #60 ) ;
#176 = EDGE_LOOP ( 'NONE', ( #244, #43 ) ) ;
#177 = APPLICATION_PROTOCOL_DEFINITION ( 'international standard', 'config_control_design', 1994, #136 ) ;
#178 = ADVANCED_FACE ( 'NONE', ( #184 ), #183, .T. ) ;
#179 = DIRECTION ( 'NONE',  ( -4.275831445896957731E-31, -1.000000000000000000, -1.224646799147352961E-16 ) ) ;
#180 = LOCAL_TIME ( 9, 37, 57.00000000000000000, #131 ) ;
#181 = CARTESIAN_POINT ( 'NONE',  ( 1.326762908760390423E-13, -4.653657836759941152E-15, 38.00000000000000000 ) ) ;
#182 = CARTESIAN_POINT ( 'NONE',  ( 1.326762908760390423E-13, -4.653657836759941152E-15, 38.00000000000000000 ) ) ;
#183 = CYLINDRICAL_SURFACE ( 'NONE', #207, 1.499999999999995337 ) ;
#184 = FACE_OUTER_BOUND ( 'NONE', #150, .T. ) ;
#185 = ADVANCED_FACE ( 'NONE', ( #71 ), #81, .T. ) ;
#186 = CONICAL_SURFACE ( 'NONE', #265, 1.499999999999995781, 0.7853981633974428389 ) ;
#187 = PRODUCT_DEFINITION_SHAPE ( 'NONE', 'NONE',  #97 ) ;
#188 = ADVANCED_FACE ( 'NONE', ( #238 ), #36, .T. ) ;
#189 = CIRCLE ( 'NONE', #84, 1.499999999999995781 ) ;
#190 = ORIENTED_EDGE ( 'NONE', *, *, #274, .T. ) ;
#191 = PERSON_AND_ORGANIZATION ( #2, #166 ) ;
#192 = ORIENTED_EDGE ( 'NONE', *, *, #19, .T. ) ;
#193 = CALENDAR_DATE ( 2021, 21, 9 ) ;
#194 = VERTEX_POINT ( 'NONE', #17 ) ;
#195 = ORIENTED_EDGE ( 'NONE', *, *, #261, .T. ) ;
#196 = EDGE_LOOP ( 'NONE', ( #264, #26 ) ) ;
#197 = EDGE_CURVE ( 'NONE', #87, #22, #189, .T. ) ;
#198 = DIRECTION ( 'NONE',  ( -2.468850131082271655E-15, 0.7071067811865455743, -0.7071067811865493491 ) ) ;
#199 = APPROVAL_DATE_TIME ( #148, #74 ) ;
#200 = CARTESIAN_POINT ( 'NONE',  ( 0.0000000000000000000, 0.0000000000000000000, 0.0000000000000000000 ) ) ;
#201 = CIRCLE ( 'NONE', #139, 1.499999999999995781 ) ;
#202 = PERSON_AND_ORGANIZATION_ROLE ( 'classification_officer' ) ;
#203 = DIRECTION ( 'NONE',  ( -4.275831445896957731E-31, -1.000000000000000000, -1.224646799147352961E-16 ) ) ;
#204 = CC_DESIGN_PERSON_AND_ORGANIZATION_ASSIGNMENT ( #68, #202, ( #254 ) ) ;
#205 = DIRECTION ( 'NONE',  ( 3.491481338843133355E-15, -1.224646799147352961E-16, 1.000000000000000000 ) ) ;
#206 = CARTESIAN_POINT ( 'NONE',  ( 1.326762908760390423E-13, 1.199999999999990186, 38.00000000000000000 ) ) ;
#207 = AXIS2_PLACEMENT_3D ( 'NONE', #14, #272, #266 ) ;
#208 = CC_DESIGN_DATE_AND_TIME_ASSIGNMENT ( #159, #88, ( #97 ) ) ;
#209 = CC_DESIGN_DATE_AND_TIME_ASSIGNMENT ( #108, #259, ( #254 ) ) ;
#210 = LINE ( 'NONE', #213, #89 ) ;
#211 = CARTESIAN_POINT ( 'NONE',  ( 1.316288464743861212E-13, 1.499999999999990008, 37.69999999999999574 ) ) ;
#212 = CIRCLE ( 'NONE', #249, 1.499999999999995781 ) ;
#213 = CARTESIAN_POINT ( 'NONE',  ( 5.237222008264741843E-15, -1.499999999999996003, 1.500000000000011990 ) ) ;
#214 = DIRECTION ( 'NONE',  ( -3.491481338843133355E-15, 1.224646799147352961E-16, -1.000000000000000000 ) ) ;
#215 = PERSON_AND_ORGANIZATION ( #2, #166 ) ;
#216 = VERTEX_POINT ( 'NONE', #239 ) ;
#217 = AXIS2_PLACEMENT_3D ( 'NONE', #122, #49, #170 ) ;
#218 = ORIENTED_EDGE ( 'NONE', *, *, #37, .T. ) ;
#219 = CALENDAR_DATE ( 2021, 21, 9 ) ;
#220 = CONICAL_SURFACE ( 'NONE', #248, 1.199999999999994627, 0.7853981633974453924 ) ;
#221 = AXIS2_PLACEMENT_3D ( 'NONE', #250, #52, #46 ) ;
#222 = VERTEX_POINT ( 'NONE', #118 ) ;
#223 = ADVANCED_BREP_SHAPE_REPRESENTATION ( '43231', ( #144, #142, #217 ), #252 ) ;
#224 = EDGE_CURVE ( 'NONE', #222, #64, #212, .T. ) ;
#225 = FACE_OUTER_BOUND ( 'NONE', #152, .T. ) ;
#226 = DIRECTION ( 'NONE',  ( -3.491481338843133355E-15, 1.224646799147352961E-16, -1.000000000000000000 ) ) ;
#227 = COORDINATED_UNIVERSAL_TIME_OFFSET ( 1, 0, .AHEAD. ) ;
#228 = CARTESIAN_POINT ( 'NONE',  ( 1.326762908760390423E-13, -4.653657836759941152E-15, 38.00000000000000000 ) ) ;
#229 = VECTOR ( 'NONE', #226, 1000.000000000000000 ) ;
#230 = VECTOR ( 'NONE', #121, 1000.000000000000000 ) ;
#231 = PRODUCT ( '43231', '43231', '', ( #79 ) ) ;
#232 = DIRECTION ( 'NONE',  ( 0.0000000000000000000, 1.000000000000000000, 0.0000000000000000000 ) ) ;
#233 = CARTESIAN_POINT ( 'NONE',  ( 5.237222008264742631E-15, -1.836970198721044232E-16, 1.500000000000012212 ) ) ;
#234 = CLOSED_SHELL ( 'NONE', ( #15, #188, #34, #178, #47, #251 ) ) ;
#235 = EDGE_CURVE ( 'NONE', #45, #222, #210, .T. ) ;
#236 = DIRECTION ( 'NONE',  ( 4.275831445896957731E-31, 1.000000000000000000, 1.224646799147352714E-16 ) ) ;
#237 = DIRECTION ( 'NONE',  ( 0.0000000000000000000, 1.000000000000000000, 0.0000000000000000000 ) ) ;
#238 = FACE_OUTER_BOUND ( 'NONE', #173, .T. ) ;
#239 = CARTESIAN_POINT ( 'NONE',  ( 6.861673126119746600E-14, -1.499999999999999112, 37.69999999999999574 ) ) ;
#240 = APPROVAL_STATUS ( 'not_yet_approved' ) ;
#241 = PERSON_AND_ORGANIZATION ( #2, #166 ) ;
#242 = PERSON_AND_ORGANIZATION ( #2, #166 ) ;
#243 = LOCAL_TIME ( 9, 37, 57.00000000000000000, #12 ) ;
#244 = ORIENTED_EDGE ( 'NONE', *, *, #86, .F. ) ;
#245 = APPROVAL_ROLE ( '' ) ;
#246 = EDGE_CURVE ( 'NONE', #216, #283, #287, .T. ) ;
#247 = DIRECTION ( 'NONE',  ( 0.0000000000000000000, 1.000000000000000000, 0.0000000000000000000 ) ) ;
#248 = AXIS2_PLACEMENT_3D ( 'NONE', #271, #154, #232 ) ;
#249 = AXIS2_PLACEMENT_3D ( 'NONE', #168, #75, #276 ) ;
#250 = CARTESIAN_POINT ( 'NONE',  ( 5.237222008264742631E-15, -1.836970198721044232E-16, 1.500000000000012212 ) ) ;
#251 = ADVANCED_FACE ( 'NONE', ( #55 ), #253, .F. ) ;
#252 =( GEOMETRIC_REPRESENTATION_CONTEXT ( 3 ) GLOBAL_UNCERTAINTY_ASSIGNED_CONTEXT ( ( #281 ) ) GLOBAL_UNIT_ASSIGNED_CONTEXT ( ( #53, #72, #137 ) ) REPRESENTATION_CONTEXT ( 'NONE', 'WORKASPACE' ) );
#253 = PLANE ( 'NONE',  #273 ) ;
#254 = SECURITY_CLASSIFICATION ( '', '', #91 ) ;
#255 = PERSON_AND_ORGANIZATION ( #2, #166 ) ;
#256 = APPLICATION_CONTEXT ( 'configuration controlled 3d designs of mechanical parts and assemblies' ) ;
#257 = EDGE_LOOP ( 'NONE', ( #83, #260, #104 ) ) ;
#258 = ORIENTED_EDGE ( 'NONE', *, *, #246, .T. ) ;
#259 = DATE_TIME_ROLE ( 'classification_date' ) ;
#260 = ORIENTED_EDGE ( 'NONE', *, *, #235, .T. ) ;
#261 = EDGE_CURVE ( 'NONE', #283, #216, #57, .T. ) ;
#262 = VERTEX_POINT ( 'NONE', #143 ) ;
#263 = APPROVAL_DATE_TIME ( #175, #58 ) ;
#264 = ORIENTED_EDGE ( 'NONE', *, *, #197, .T. ) ;
#265 = AXIS2_PLACEMENT_3D ( 'NONE', #233, #160, #33 ) ;
#266 = DIRECTION ( 'NONE',  ( 4.275831445896957731E-31, 1.000000000000000000, 1.224646799147352714E-16 ) ) ;
#267 = COORDINATED_UNIVERSAL_TIME_OFFSET ( 1, 0, .AHEAD. ) ;
#268 = CARTESIAN_POINT ( 'NONE',  ( 5.237222008264743420E-15, 1.499999999999995559, 1.500000000000012434 ) ) ;
#269 = APPROVAL ( #240, 'UNSPECIFIED' ) ;
#270 = PERSON_AND_ORGANIZATION_ROLE ( 'design_supplier' ) ;
#271 = CARTESIAN_POINT ( 'NONE',  ( 1.326762908760390423E-13, -4.653657836759941152E-15, 38.00000000000000000 ) ) ;
#272 = DIRECTION ( 'NONE',  ( -3.491481338843133355E-15, 1.224646799147352961E-16, -1.000000000000000000 ) ) ;
#273 = AXIS2_PLACEMENT_3D ( 'NONE', #145, #35, #18 ) ;
#274 = EDGE_CURVE ( 'NONE', #283, #87, #73, .T. ) ;
#275 = DIRECTION ( 'NONE',  ( 5.135813185032643538E-31, 1.000000000000000000, 1.445602896647343354E-16 ) ) ;
#276 = DIRECTION ( 'NONE',  ( 5.135813185032643538E-31, 1.000000000000000000, 1.445602896647343354E-16 ) ) ;
#277 = DIRECTION ( 'NONE',  ( -3.491481338843133355E-15, 1.224646799147352961E-16, -1.000000000000000000 ) ) ;
#278 = CLOSED_SHELL ( 'NONE', ( #185, #63, #127 ) ) ;
#279 = AXIS2_PLACEMENT_3D ( 'NONE', #141, #277, #237 ) ;
#280 = DIRECTION ( 'NONE',  ( 5.135813185032643538E-31, 1.000000000000000000, 1.445602896647343354E-16 ) ) ;
#281 = UNCERTAINTY_MEASURE_WITH_UNIT (LENGTH_MEASURE( 1.000000000000000082E-05 ), #53, 'distance_accuracy_value', 'NONE');
#282 = LINE ( 'NONE', #78, #230 ) ;
#283 = VERTEX_POINT ( 'NONE', #211 ) ;
#284 = ORIENTED_EDGE ( 'NONE', *, *, #86, .T. ) ;
#285 = EDGE_CURVE ( 'NONE', #45, #64, #282, .T. ) ;
#286 = CONICAL_SURFACE ( 'NONE', #162, 1.199999999999994627, 0.7853981633974453924 ) ;
#287 = CIRCLE ( 'NONE', #279, 1.499999999999994671 ) ;
ENDSEC;
END-ISO-10303-21;
