ISO-10303-21;
HEADER;
FILE_DESCRIPTION (( 'STEP AP203' ),
    '1' );
FILE_NAME ('43218.step',
    '2021-11-17T09:16:10',
    ( '' ),
    ( '' ),
    'SwSTEP 2.0',
    'SolidWorks 2019',
    '' );
FILE_SCHEMA (( 'CONFIG_CONTROL_DESIGN' ));
ENDSEC;

DATA;
#1 = APPROVAL_DATE_TIME ( #23, #221 ) ;
#2 = ORIENTED_EDGE ( 'NONE', *, *, #167, .T. ) ;
#3 = CARTESIAN_POINT ( 'NONE',  ( 0.0000000000000000000, 0.0000000000000000000, 0.0000000000000000000 ) ) ;
#4 = APPLICATION_CONTEXT ( 'configuration controlled 3d designs of mechanical parts and assemblies' ) ;
#5 = APPROVAL_PERSON_ORGANIZATION ( #140, #42, #86 ) ;
#6 = DATE_AND_TIME ( #101, #171 ) ;
#7 = DATE_AND_TIME ( #49, #219 ) ;
#8 = DIRECTION ( 'NONE',  ( 3.491481338843133355E-15, -1.217917285207545432E-16, 1.000000000000000000 ) ) ;
#9 = APPROVAL_ROLE ( '' ) ;
#10 = FACE_OUTER_BOUND ( 'NONE', #174, .T. ) ;
#11 = DIRECTION ( 'NONE',  ( 3.491481338843133355E-15, -1.217917285207545432E-16, 1.000000000000000000 ) ) ;
#12 = CC_DESIGN_PERSON_AND_ORGANIZATION_ASSIGNMENT ( #198, #33, ( #18 ) ) ;
#13 = FACE_OUTER_BOUND ( 'NONE', #29, .T. ) ;
#14 = CIRCLE ( 'NONE', #178, 3.999999999999998224 ) ;
#15 = CIRCLE ( 'NONE', #76, 4.500000000000000888 ) ;
#16 = VERTEX_POINT ( 'NONE', #79 ) ;
#17 = EDGE_CURVE ( 'NONE', #170, #170, #14, .T. ) ;
#18 = PRODUCT_DEFINITION_FORMATION_WITH_SPECIFIED_SOURCE ( 'ANY', '', #184, .NOT_KNOWN. ) ;
#19 = VERTEX_POINT ( 'NONE', #238 ) ;
#20 = CONICAL_SURFACE ( 'NONE', #72, 5.000000000000000888, 0.7853981633974482790 ) ;
#21 = EDGE_LOOP ( 'NONE', ( #82 ) ) ;
#22 = CC_DESIGN_DATE_AND_TIME_ASSIGNMENT ( #7, #179, ( #103 ) ) ;
#23 = DATE_AND_TIME ( #88, #68 ) ;
#24 = APPROVAL ( #25, 'UNSPECIFIED' ) ;
#25 = APPROVAL_STATUS ( 'not_yet_approved' ) ;
#26 = ADVANCED_FACE ( 'NONE', ( #234, #10 ), #97, .T. ) ;
#27 = APPLICATION_PROTOCOL_DEFINITION ( 'international standard', 'config_control_design', 1994, #208 ) ;
#28 = CIRCLE ( 'NONE', #60, 3.799999999999999378 ) ;
#29 = EDGE_LOOP ( 'NONE', ( #78 ) ) ;
#30 = DIRECTION ( 'NONE',  ( 0.0000000000000000000, 0.0000000000000000000, 1.000000000000000000 ) ) ;
#31 = DIRECTION ( 'NONE',  ( 3.491481338843133355E-15, -1.224646799147353207E-16, 1.000000000000000000 ) ) ;
#32 = MANIFOLD_SOLID_BREP ( 'Corps-Déplacer/Copier1[2]', #218 ) ;
#33 = PERSON_AND_ORGANIZATION_ROLE ( 'design_supplier' ) ;
#34 = DIRECTION ( 'NONE',  ( -3.491481338843133355E-15, 1.224646799147353207E-16, -1.000000000000000000 ) ) ;
#35 = AXIS2_PLACEMENT_3D ( 'NONE', #153, #222, #118 ) ;
#36 = DIRECTION ( 'NONE',  ( -3.491481338843133355E-15, 1.224646799147353207E-16, -1.000000000000000000 ) ) ;
#37 = CARTESIAN_POINT ( 'NONE',  ( 6.982962677686246003E-16, -2.435834570415083531E-17, 0.1999999999999994005 ) ) ;
#38 = DIRECTION ( 'NONE',  ( -3.491481338843133355E-15, 1.224646799147353207E-16, -1.000000000000000000 ) ) ;
#39 = APPROVAL_PERSON_ORGANIZATION ( #229, #221, #9 ) ;
#40 = CARTESIAN_POINT ( 'NONE',  ( 4.000000000000054179, 0.0000000000000000000, 15.99999999999998579 ) ) ;
#41 = CC_DESIGN_SECURITY_CLASSIFICATION ( #205, ( #18 ) ) ;
#42 = APPROVAL ( #143, 'UNSPECIFIED' ) ;
#43 = FACE_OUTER_BOUND ( 'NONE', #65, .T. ) ;
#44 = PERSON_AND_ORGANIZATION_ROLE ( 'creator' ) ;
#45 = EDGE_LOOP ( 'NONE', ( #211 ) ) ;
#46 = PERSON_AND_ORGANIZATION_ROLE ( 'creator' ) ;
#47 = EDGE_CURVE ( 'NONE', #191, #191, #195, .T. ) ;
#48 = EDGE_CURVE ( 'NONE', #115, #115, #15, .T. ) ;
#49 = CALENDAR_DATE ( 2021, 17, 11 ) ;
#50 = EDGE_LOOP ( 'NONE', ( #194 ) ) ;
#51 = AXIS2_PLACEMENT_3D ( 'NONE', #199, #232, #113 ) ;
#52 = PLANE ( 'NONE',  #189 ) ;
#53 = DIRECTION ( 'NONE',  ( 1.000000000000000000, 0.0000000000000000000, 0.0000000000000000000 ) ) ;
#54 = FACE_OUTER_BOUND ( 'NONE', #21, .T. ) ;
#55 = CC_DESIGN_APPROVAL ( #221, ( #18 ) ) ;
#56 = DIRECTION ( 'NONE',  ( 1.000000000000000000, 0.0000000000000000000, -3.491481338843133355E-15 ) ) ;
#57 = DESIGN_CONTEXT ( 'detailed design', #4, 'design' ) ;
#58 = FACE_OUTER_BOUND ( 'NONE', #175, .T. ) ;
#59 = CC_DESIGN_PERSON_AND_ORGANIZATION_ASSIGNMENT ( #156, #46, ( #18 ) ) ;
#60 = AXIS2_PLACEMENT_3D ( 'NONE', #181, #8, #89 ) ;
#61 = ORIENTED_EDGE ( 'NONE', *, *, #17, .T. ) ;
#62 = COORDINATED_UNIVERSAL_TIME_OFFSET ( 1, 0, .AHEAD. ) ;
#63 = EDGE_LOOP ( 'NONE', ( #122 ) ) ;
#64 = PERSON_AND_ORGANIZATION_ROLE ( 'classification_officer' ) ;
#65 = EDGE_LOOP ( 'NONE', ( #108 ) ) ;
#66 = COORDINATED_UNIVERSAL_TIME_OFFSET ( 1, 0, .AHEAD. ) ;
#67 = MECHANICAL_CONTEXT ( 'NONE', #208, 'mechanical' ) ;
#68 = LOCAL_TIME ( 10, 16, 10.00000000000000000, #66 ) ;
#69 = DIRECTION ( 'NONE',  ( 3.491481338843133355E-15, -1.217917285207545432E-16, 1.000000000000000000 ) ) ;
#70 = DIRECTION ( 'NONE',  ( -3.491481338843133355E-15, 1.224646799147353207E-16, -1.000000000000000000 ) ) ;
#71 = ADVANCED_FACE ( 'NONE', ( #13, #202 ), #154, .F. ) ;
#72 = AXIS2_PLACEMENT_3D ( 'NONE', #124, #197, #104 ) ;
#73 = CARTESIAN_POINT ( 'NONE',  ( 6.982962677686246003E-16, -2.435834570415083531E-17, 0.1999999999999994005 ) ) ;
#74 = DIRECTION ( 'NONE',  ( 3.491481338843133355E-15, -0.0000000000000000000, 1.000000000000000000 ) ) ;
#75 = CARTESIAN_POINT ( 'NONE',  ( 2.513866563967056016E-13, 4.499999999999992006, 72.00000000000000000 ) ) ;
#76 = AXIS2_PLACEMENT_3D ( 'NONE', #230, #36, #215 ) ;
#77 = CARTESIAN_POINT ( 'NONE',  ( 2.496409157272840412E-13, 4.999999999999992006, 71.50000000000000000 ) ) ;
#78 = ORIENTED_EDGE ( 'NONE', *, *, #167, .F. ) ;
#79 = CARTESIAN_POINT ( 'NONE',  ( 6.982962677686229240E-16, -4.000000000000000000, 0.1999999999999989286 ) ) ;
#80 = FACE_OUTER_BOUND ( 'NONE', #242, .T. ) ;
#81 =( LENGTH_UNIT ( ) NAMED_UNIT ( * ) SI_UNIT ( .MILLI., .METRE. ) );
#82 = ORIENTED_EDGE ( 'NONE', *, *, #109, .T. ) ;
#83 = APPROVAL_PERSON_ORGANIZATION ( #121, #24, #100 ) ;
#84 = PERSON_AND_ORGANIZATION ( #225, #241 ) ;
#85 = ORIENTED_EDGE ( 'NONE', *, *, #17, .F. ) ;
#86 = APPROVAL_ROLE ( '' ) ;
#87 = EDGE_LOOP ( 'NONE', ( #243 ) ) ;
#88 = CALENDAR_DATE ( 2021, 17, 11 ) ;
#89 = DIRECTION ( 'NONE',  ( -4.252335473556634944E-31, -1.000000000000000000, -1.217917285207545432E-16 ) ) ;
#90 = CALENDAR_DATE ( 2021, 17, 11 ) ;
#91 = CARTESIAN_POINT ( 'NONE',  ( 2.496409157272840412E-13, -8.756224613903574137E-15, 71.50000000000000000 ) ) ;
#92 = CC_DESIGN_PERSON_AND_ORGANIZATION_ASSIGNMENT ( #84, #64, ( #205 ) ) ;
#93 = CARTESIAN_POINT ( 'NONE',  ( -6.413747168845438786E-31, 0.0000000000000000000, -1.836970198721029934E-16 ) ) ;
#94 = AXIS2_PLACEMENT_3D ( 'NONE', #106, #147, #135 ) ;
#95 = DIRECTION ( 'NONE',  ( 4.275831445896958607E-31, 1.000000000000000000, 1.224646799147353207E-16 ) ) ;
#96 = CARTESIAN_POINT ( 'NONE',  ( -1.068957861474239564E-30, 3.749399456654644020E-32, -3.061616997868383141E-16 ) ) ;
#97 = CONICAL_SURFACE ( 'NONE', #214, 4.000000000000000000, 0.7853981633974499443 ) ;
#98 = LOCAL_TIME ( 10, 16, 10.00000000000000000, #62 ) ;
#99 = ADVANCED_FACE ( 'NONE', ( #168 ), #185, .F. ) ;
#100 = APPROVAL_ROLE ( '' ) ;
#101 = CALENDAR_DATE ( 2021, 17, 11 ) ;
#102 =( NAMED_UNIT ( * ) SI_UNIT ( $, .STERADIAN. ) SOLID_ANGLE_UNIT ( ) );
#103 = PRODUCT_DEFINITION ( 'UNKNOWN', '', #18, #57 ) ;
#104 = DIRECTION ( 'NONE',  ( 0.0000000000000000000, 1.000000000000000000, 0.0000000000000000000 ) ) ;
#105 = DATE_TIME_ROLE ( 'classification_date' ) ;
#106 = CARTESIAN_POINT ( 'NONE',  ( 5.586370142149013368E-14, 3.749399456654641830E-32, 16.00000000000000000 ) ) ;
#107 = CARTESIAN_POINT ( 'NONE',  ( 5.586370142149013368E-14, 0.0000000000000000000, 16.00000000000000000 ) ) ;
#108 = ORIENTED_EDGE ( 'NONE', *, *, #217, .F. ) ;
#109 = EDGE_CURVE ( 'NONE', #16, #16, #131, .T. ) ;
#110 = ADVANCED_FACE ( 'NONE', ( #58, #54 ), #130, .T. ) ;
#111 = MANIFOLD_SOLID_BREP ( 'Corps-Déplacer/Copier1[1]', #206 ) ;
#112 = DIRECTION ( 'NONE',  ( 4.275831445896958607E-31, 1.000000000000000000, 1.224646799147353207E-16 ) ) ;
#113 = DIRECTION ( 'NONE',  ( -1.000000000000000000, 0.0000000000000000000, 3.469446951953613400E-15 ) ) ;
#114 = CIRCLE ( 'NONE', #35, 3.999999999999998224 ) ;
#115 = VERTEX_POINT ( 'NONE', #75 ) ;
#116 = VERTEX_POINT ( 'NONE', #192 ) ;
#117 = LOCAL_TIME ( 10, 16, 10.00000000000000000, #158 ) ;
#118 = DIRECTION ( 'NONE',  ( 1.000000000000000000, 0.0000000000000000000, -3.469446951953615767E-15 ) ) ;
#119 = PLANE ( 'NONE',  #169 ) ;
#120 = ORIENTED_EDGE ( 'NONE', *, *, #223, .F. ) ;
#121 = PERSON_AND_ORGANIZATION ( #225, #241 ) ;
#122 = ORIENTED_EDGE ( 'NONE', *, *, #48, .T. ) ;
#123 = AXIS2_PLACEMENT_3D ( 'NONE', #216, #38, #95 ) ;
#124 = CARTESIAN_POINT ( 'NONE',  ( 2.496409157272840412E-13, -8.756224613903574137E-15, 71.50000000000000000 ) ) ;
#125 = APPROVAL_DATE_TIME ( #6, #42 ) ;
#126 = DIRECTION ( 'NONE',  ( -4.333342374871280669E-31, -1.000000000000000000, -1.219727444046192488E-16 ) ) ;
#127 = CC_DESIGN_APPROVAL ( #42, ( #103 ) ) ;
#128 = DIRECTION ( 'NONE',  ( 3.491481338843133355E-15, -0.0000000000000000000, 1.000000000000000000 ) ) ;
#129 = PRODUCT_DEFINITION_SHAPE ( 'NONE', 'NONE',  #103 ) ;
#130 = CYLINDRICAL_SURFACE ( 'NONE', #163, 4.000000000000000000 ) ;
#131 = CIRCLE ( 'NONE', #231, 4.000000000000000000 ) ;
#132 = PRODUCT_RELATED_PRODUCT_CATEGORY ( 'detail', '', ( #184 ) ) ;
#133 = ADVANCED_FACE ( 'NONE', ( #165, #204 ), #188, .T. ) ;
#134 = DIRECTION ( 'NONE',  ( -3.491481338843133355E-15, 1.224646799147353207E-16, -1.000000000000000000 ) ) ;
#135 = DIRECTION ( 'NONE',  ( -4.275831445896958607E-31, -1.000000000000000000, -1.224646799147353207E-16 ) ) ;
#136 = DIRECTION ( 'NONE',  ( 4.275831445896958607E-31, 1.000000000000000000, 1.224646799147353207E-16 ) ) ;
#137 = DATE_AND_TIME ( #90, #98 ) ;
#138 = SHAPE_DEFINITION_REPRESENTATION ( #129, #141 ) ;
#139 = ORIENTED_EDGE ( 'NONE', *, *, #47, .T. ) ;
#140 = PERSON_AND_ORGANIZATION ( #225, #241 ) ;
#141 = ADVANCED_BREP_SHAPE_REPRESENTATION ( '43218', ( #111, #32, #142 ), #201 ) ;
#142 = AXIS2_PLACEMENT_3D ( 'NONE', #3, #30, #53 ) ;
#143 = APPROVAL_STATUS ( 'not_yet_approved' ) ;
#144 = DIRECTION ( 'NONE',  ( -4.275831445896958607E-31, -1.000000000000000000, -1.224646799147353207E-16 ) ) ;
#145 = COORDINATED_UNIVERSAL_TIME_OFFSET ( 1, 0, .AHEAD. ) ;
#146 = DIRECTION ( 'NONE',  ( 1.000000000000000000, 0.0000000000000000000, -3.491481338843133355E-15 ) ) ;
#147 = DIRECTION ( 'NONE',  ( 3.491481338843133355E-15, -1.224646799147353207E-16, 1.000000000000000000 ) ) ;
#148 = FACE_OUTER_BOUND ( 'NONE', #50, .T. ) ;
#149 = CC_DESIGN_APPROVAL ( #24, ( #205 ) ) ;
#150 = UNCERTAINTY_MEASURE_WITH_UNIT (LENGTH_MEASURE( 1.000000000000000082E-05 ), #81, 'distance_accuracy_value', 'NONE');
#151 = CARTESIAN_POINT ( 'NONE',  ( 5.586370142149013368E-14, 3.749399456654641830E-32, 16.00000000000000000 ) ) ;
#152 = CARTESIAN_POINT ( 'NONE',  ( 2.513866563967056016E-13, 3.374459510989167028E-32, 72.00000000000000000 ) ) ;
#153 = CARTESIAN_POINT ( 'NONE',  ( 5.586370142149013368E-14, 0.0000000000000000000, 16.00000000000000000 ) ) ;
#154 = TOROIDAL_SURFACE ( 'NONE', #207, 11.99999999999999645, 8.000000000000000000 ) ;
#155 = ORIENTED_EDGE ( 'NONE', *, *, #223, .T. ) ;
#156 = PERSON_AND_ORGANIZATION ( #225, #241 ) ;
#157 = EDGE_LOOP ( 'NONE', ( #155 ) ) ;
#158 = COORDINATED_UNIVERSAL_TIME_OFFSET ( 1, 0, .AHEAD. ) ;
#159 = APPLICATION_PROTOCOL_DEFINITION ( 'international standard', 'config_control_design', 1994, #4 ) ;
#160 = EDGE_LOOP ( 'NONE', ( #2 ) ) ;
#161 =( NAMED_UNIT ( * ) PLANE_ANGLE_UNIT ( ) SI_UNIT ( $, .RADIAN. ) );
#162 = DIRECTION ( 'NONE',  ( 0.0000000000000000000, 1.000000000000000000, 0.0000000000000000000 ) ) ;
#163 = AXIS2_PLACEMENT_3D ( 'NONE', #93, #74, #56 ) ;
#164 = DIRECTION ( 'NONE',  ( -4.333342374871280669E-31, -1.000000000000000000, -1.219727444046192488E-16 ) ) ;
#165 = FACE_OUTER_BOUND ( 'NONE', #172, .T. ) ;
#166 = CIRCLE ( 'NONE', #51, 5.000000000000000888 ) ;
#167 = EDGE_CURVE ( 'NONE', #116, #116, #166, .T. ) ;
#168 = FACE_OUTER_BOUND ( 'NONE', #213, .T. ) ;
#169 = AXIS2_PLACEMENT_3D ( 'NONE', #96, #134, #136 ) ;
#170 = VERTEX_POINT ( 'NONE', #40 ) ;
#171 = LOCAL_TIME ( 10, 16, 10.00000000000000000, #145 ) ;
#172 = EDGE_LOOP ( 'NONE', ( #139 ) ) ;
#173 = CC_DESIGN_DATE_AND_TIME_ASSIGNMENT ( #137, #105, ( #205 ) ) ;
#174 = EDGE_LOOP ( 'NONE', ( #226 ) ) ;
#175 = EDGE_LOOP ( 'NONE', ( #85 ) ) ;
#176 = PERSON_AND_ORGANIZATION_ROLE ( 'design_owner' ) ;
#177 = PLANE ( 'NONE',  #94 ) ;
#178 = AXIS2_PLACEMENT_3D ( 'NONE', #183, #220, #200 ) ;
#179 = DATE_TIME_ROLE ( 'creation_date' ) ;
#180 = PERSON_AND_ORGANIZATION ( #225, #241 ) ;
#181 = CARTESIAN_POINT ( 'NONE',  ( -1.615887479951521103E-30, 5.636625551707806507E-32, -4.628085683788671558E-16 ) ) ;
#182 = PERSON_AND_ORGANIZATION ( #225, #241 ) ;
#183 = CARTESIAN_POINT ( 'NONE',  ( 5.586370142149013368E-14, 0.0000000000000000000, 16.00000000000000000 ) ) ;
#184 = PRODUCT ( '43218', '43218', '', ( #67 ) ) ;
#185 = PLANE ( 'NONE',  #236 ) ;
#186 = FACE_BOUND ( 'NONE', #63, .T. ) ;
#187 = ADVANCED_FACE ( 'NONE', ( #233 ), #52, .F. ) ;
#188 = CYLINDRICAL_SURFACE ( 'NONE', #123, 5.000000000000000888 ) ;
#189 = AXIS2_PLACEMENT_3D ( 'NONE', #152, #70, #112 ) ;
#190 = APPROVAL_DATE_TIME ( #212, #24 ) ;
#191 = VERTEX_POINT ( 'NONE', #77 ) ;
#192 = CARTESIAN_POINT ( 'NONE',  ( -4.999999999999931610, 0.0000000000000000000, 19.87298334620744100 ) ) ;
#193 = COORDINATED_UNIVERSAL_TIME_OFFSET ( 1, 0, .AHEAD. ) ;
#194 = ORIENTED_EDGE ( 'NONE', *, *, #47, .F. ) ;
#195 = CIRCLE ( 'NONE', #224, 5.000000000000000888 ) ;
#196 = APPROVAL_STATUS ( 'not_yet_approved' ) ;
#197 = DIRECTION ( 'NONE',  ( -3.491481338843133355E-15, 1.224646799147353207E-16, -1.000000000000000000 ) ) ;
#198 = PERSON_AND_ORGANIZATION ( #225, #241 ) ;
#199 = CARTESIAN_POINT ( 'NONE',  ( 6.938615050042359022E-14, 0.0000000000000000000, 19.87298334620742324 ) ) ;
#200 = DIRECTION ( 'NONE',  ( 1.000000000000000000, 0.0000000000000000000, -3.469446951953615767E-15 ) ) ;
#201 =( GEOMETRIC_REPRESENTATION_CONTEXT ( 3 ) GLOBAL_UNCERTAINTY_ASSIGNED_CONTEXT ( ( #150 ) ) GLOBAL_UNIT_ASSIGNED_CONTEXT ( ( #81, #161, #102 ) ) REPRESENTATION_CONTEXT ( 'NONE', 'WORKASPACE' ) );
#202 = FACE_OUTER_BOUND ( 'NONE', #157, .T. ) ;
#203 = ADVANCED_FACE ( 'NONE', ( #186, #148 ), #20, .T. ) ;
#204 = FACE_OUTER_BOUND ( 'NONE', #160, .T. ) ;
#205 = SECURITY_CLASSIFICATION ( '', '', #227 ) ;
#206 = CLOSED_SHELL ( 'NONE', ( #133, #203, #187, #71, #99 ) ) ;
#207 = AXIS2_PLACEMENT_3D ( 'NONE', #107, #128, #146 ) ;
#208 = APPLICATION_CONTEXT ( 'configuration controlled 3d designs of mechanical parts and assemblies' ) ;
#209 = VERTEX_POINT ( 'NONE', #240 ) ;
#210 = CC_DESIGN_PERSON_AND_ORGANIZATION_ASSIGNMENT ( #182, #176, ( #184 ) ) ;
#211 = ORIENTED_EDGE ( 'NONE', *, *, #217, .T. ) ;
#212 = DATE_AND_TIME ( #228, #117 ) ;
#213 = EDGE_LOOP ( 'NONE', ( #120 ) ) ;
#214 = AXIS2_PLACEMENT_3D ( 'NONE', #73, #69, #126 ) ;
#215 = DIRECTION ( 'NONE',  ( 0.0000000000000000000, 1.000000000000000000, 0.0000000000000000000 ) ) ;
#216 = CARTESIAN_POINT ( 'NONE',  ( 0.0000000000000000000, 0.0000000000000000000, 0.0000000000000000000 ) ) ;
#217 = EDGE_CURVE ( 'NONE', #209, #209, #28, .T. ) ;
#218 = CLOSED_SHELL ( 'NONE', ( #110, #237, #26, #239 ) ) ;
#219 = LOCAL_TIME ( 10, 16, 10.00000000000000000, #193 ) ;
#220 = DIRECTION ( 'NONE',  ( 3.491481338843133355E-15, -0.0000000000000000000, 1.000000000000000000 ) ) ;
#221 = APPROVAL ( #196, 'UNSPECIFIED' ) ;
#222 = DIRECTION ( 'NONE',  ( 3.491481338843133355E-15, -0.0000000000000000000, 1.000000000000000000 ) ) ;
#223 = EDGE_CURVE ( 'NONE', #19, #19, #114, .T. ) ;
#224 = AXIS2_PLACEMENT_3D ( 'NONE', #91, #34, #162 ) ;
#225 = PERSON ( 'UNSPECIFIED', 'UNSPECIFIED', 'UNSPECIFIED', ('UNSPECIFIED'), ('UNSPECIFIED'), ('UNSPECIFIED') ) ;
#226 = ORIENTED_EDGE ( 'NONE', *, *, #109, .F. ) ;
#227 = SECURITY_CLASSIFICATION_LEVEL ( 'unclassified' ) ;
#228 = CALENDAR_DATE ( 2021, 17, 11 ) ;
#229 = PERSON_AND_ORGANIZATION ( #225, #241 ) ;
#230 = CARTESIAN_POINT ( 'NONE',  ( 2.513866563967056016E-13, -8.817456953860941711E-15, 72.00000000000000000 ) ) ;
#231 = AXIS2_PLACEMENT_3D ( 'NONE', #37, #11, #164 ) ;
#232 = DIRECTION ( 'NONE',  ( 3.491481338843133355E-15, -0.0000000000000000000, 1.000000000000000000 ) ) ;
#233 = FACE_OUTER_BOUND ( 'NONE', #87, .T. ) ;
#234 = FACE_BOUND ( 'NONE', #45, .T. ) ;
#235 = CC_DESIGN_PERSON_AND_ORGANIZATION_ASSIGNMENT ( #180, #44, ( #103 ) ) ;
#236 = AXIS2_PLACEMENT_3D ( 'NONE', #151, #31, #144 ) ;
#237 = ADVANCED_FACE ( 'NONE', ( #80 ), #177, .T. ) ;
#238 = CARTESIAN_POINT ( 'NONE',  ( 4.000000000000054179, 0.0000000000000000000, 15.99999999999998579 ) ) ;
#239 = ADVANCED_FACE ( 'NONE', ( #43 ), #119, .T. ) ;
#240 = CARTESIAN_POINT ( 'NONE',  ( -3.231774959903042207E-30, -3.799999999999999378, -9.256171367577343117E-16 ) ) ;
#241 = ORGANIZATION ( 'UNSPECIFIED', 'UNSPECIFIED', '' ) ;
#242 = EDGE_LOOP ( 'NONE', ( #61 ) ) ;
#243 = ORIENTED_EDGE ( 'NONE', *, *, #48, .F. ) ;
ENDSEC;
END-ISO-10303-21;
