ISO-10303-21;
HEADER;
FILE_DESCRIPTION (( 'STEP AP203' ),
    '1' );
FILE_NAME ('43215.step',
    '2021-11-01T10:35:18',
    ( '' ),
    ( '' ),
    'SwSTEP 2.0',
    'SolidWorks 2019',
    '' );
FILE_SCHEMA (( 'CONFIG_CONTROL_DESIGN' ));
ENDSEC;

DATA;
#1 = DIRECTION ( 'NONE',  ( -4.275831445896958607E-31, -1.000000000000000000, -1.224646799147353207E-16 ) ) ;
#2 = DIRECTION ( 'NONE',  ( 0.0000000000000000000, 1.000000000000000000, 0.0000000000000000000 ) ) ;
#3 = DIRECTION ( 'NONE',  ( 3.491481338843133355E-15, -1.224646799147353207E-16, 1.000000000000000000 ) ) ;
#4 = AXIS2_PLACEMENT_3D ( 'NONE', #242, #16, #100 ) ;
#5 = CARTESIAN_POINT ( 'NONE',  ( 2.513866563967056016E-13, 4.499999999999992006, 72.00000000000000000 ) ) ;
#6 = ORIENTED_EDGE ( 'NONE', *, *, #60, .T. ) ;
#7 =( LENGTH_UNIT ( ) NAMED_UNIT ( * ) SI_UNIT ( .MILLI., .METRE. ) );
#8 = EDGE_LOOP ( 'NONE', ( #45 ) ) ;
#9 = VERTEX_POINT ( 'NONE', #24 ) ;
#10 = CC_DESIGN_PERSON_AND_ORGANIZATION_ASSIGNMENT ( #137, #127, ( #99 ) ) ;
#11 = APPROVAL_DATE_TIME ( #163, #160 ) ;
#12 = COORDINATED_UNIVERSAL_TIME_OFFSET ( 1, 0, .AHEAD. ) ;
#13 = AXIS2_PLACEMENT_3D ( 'NONE', #61, #62, #152 ) ;
#14 = COORDINATED_UNIVERSAL_TIME_OFFSET ( 1, 0, .AHEAD. ) ;
#15 = CC_DESIGN_APPROVAL ( #54, ( #99 ) ) ;
#16 = DIRECTION ( 'NONE',  ( -3.491481338843133355E-15, 1.224646799147353207E-16, -1.000000000000000000 ) ) ;
#17 = EDGE_CURVE ( 'NONE', #190, #190, #202, .T. ) ;
#18 = CARTESIAN_POINT ( 'NONE',  ( 6.982962677686251919E-16, -2.453312193277550707E-17, 0.1999999999999995670 ) ) ;
#19 = CARTESIAN_POINT ( 'NONE',  ( 5.586370142149013368E-14, -1.734723475976807094E-15, 16.00000000000000000 ) ) ;
#20 = CARTESIAN_POINT ( 'NONE',  ( 0.0000000000000000000, 0.0000000000000000000, 0.0000000000000000000 ) ) ;
#21 = APPLICATION_CONTEXT ( 'configuration controlled 3d designs of mechanical parts and assemblies' ) ;
#22 = PERSON_AND_ORGANIZATION_ROLE ( 'design_supplier' ) ;
#23 = CIRCLE ( 'NONE', #30, 4.999999999999997335 ) ;
#24 = CARTESIAN_POINT ( 'NONE',  ( 5.586370142149013368E-14, -4.250000000000000000, 16.00000000000000000 ) ) ;
#25 = APPROVAL_STATUS ( 'not_yet_approved' ) ;
#26 = CC_DESIGN_DATE_AND_TIME_ASSIGNMENT ( #28, #94, ( #200 ) ) ;
#27 = APPROVAL_PERSON_ORGANIZATION ( #93, #160, #233 ) ;
#28 = DATE_AND_TIME ( #197, #216 ) ;
#29 = ADVANCED_FACE ( 'NONE', ( #50 ), #52, .F. ) ;
#30 = AXIS2_PLACEMENT_3D ( 'NONE', #131, #102, #220 ) ;
#31 =( GEOMETRIC_REPRESENTATION_CONTEXT ( 3 ) GLOBAL_UNCERTAINTY_ASSIGNED_CONTEXT ( ( #195 ) ) GLOBAL_UNIT_ASSIGNED_CONTEXT ( ( #7, #228, #86 ) ) REPRESENTATION_CONTEXT ( 'NONE', 'WORKASPACE' ) );
#32 = DIRECTION ( 'NONE',  ( 3.491481338843133355E-15, -1.224646799147353207E-16, 1.000000000000000000 ) ) ;
#33 = CC_DESIGN_PERSON_AND_ORGANIZATION_ASSIGNMENT ( #212, #166, ( #146 ) ) ;
#34 = CARTESIAN_POINT ( 'NONE',  ( -1.734552982589942547E-30, 3.434088566918675625E-32, -4.967957191387047901E-16 ) ) ;
#35 = CARTESIAN_POINT ( 'NONE',  ( 2.513866563967056016E-13, -8.817456953860941711E-15, 72.00000000000000000 ) ) ;
#36 = ADVANCED_FACE ( 'NONE', ( #114, #133 ), #82, .T. ) ;
#37 = DIRECTION ( 'NONE',  ( 0.0000000000000000000, -1.000000000000000000, 0.0000000000000000000 ) ) ;
#38 = CC_DESIGN_SECURITY_CLASSIFICATION ( #146, ( #99 ) ) ;
#39 = AXIS2_PLACEMENT_3D ( 'NONE', #81, #101, #2 ) ;
#40 = EDGE_CURVE ( 'NONE', #59, #59, #23, .T. ) ;
#41 = ORIENTED_EDGE ( 'NONE', *, *, #173, .F. ) ;
#42 = COORDINATED_UNIVERSAL_TIME_OFFSET ( 1, 0, .AHEAD. ) ;
#43 = ORIENTED_EDGE ( 'NONE', *, *, #128, .T. ) ;
#44 = PERSON_AND_ORGANIZATION_ROLE ( 'design_owner' ) ;
#45 = ORIENTED_EDGE ( 'NONE', *, *, #40, .T. ) ;
#46 = ADVANCED_FACE ( 'NONE', ( #55 ), #104, .T. ) ;
#47 = LOCAL_TIME ( 11, 35, 18.00000000000000000, #12 ) ;
#48 = APPROVAL_DATE_TIME ( #144, #54 ) ;
#49 = SHAPE_DEFINITION_REPRESENTATION ( #116, #53 ) ;
#50 = FACE_OUTER_BOUND ( 'NONE', #192, .T. ) ;
#51 = DATE_AND_TIME ( #98, #203 ) ;
#52 = PLANE ( 'NONE',  #63 ) ;
#53 = ADVANCED_BREP_SHAPE_REPRESENTATION ( '43215', ( #97, #241, #167 ), #31 ) ;
#54 = APPROVAL ( #234, 'UNSPECIFIED' ) ;
#55 = FACE_OUTER_BOUND ( 'NONE', #140, .T. ) ;
#56 = EDGE_CURVE ( 'NONE', #90, #90, #139, .T. ) ;
#57 = DIRECTION ( 'NONE',  ( -4.285855558155654155E-31, -1.000000000000000000, -1.227517819005651305E-16 ) ) ;
#58 = CIRCLE ( 'NONE', #13, 4.250000000000000000 ) ;
#59 = VERTEX_POINT ( 'NONE', #176 ) ;
#60 = EDGE_CURVE ( 'NONE', #9, #9, #165, .T. ) ;
#61 = CARTESIAN_POINT ( 'NONE',  ( 6.982962677686251919E-16, -2.453312193277550707E-17, 0.1999999999999995670 ) ) ;
#62 = DIRECTION ( 'NONE',  ( 3.491481338843133355E-15, -1.226656096638776648E-16, 1.000000000000000000 ) ) ;
#63 = AXIS2_PLACEMENT_3D ( 'NONE', #96, #218, #129 ) ;
#64 = DIRECTION ( 'NONE',  ( -3.491481338843133355E-15, 1.224646799147353207E-16, -1.000000000000000000 ) ) ;
#65 = PERSON_AND_ORGANIZATION_ROLE ( 'creator' ) ;
#66 = EDGE_LOOP ( 'NONE', ( #231 ) ) ;
#67 = CARTESIAN_POINT ( 'NONE',  ( -3.469105965179885094E-30, -4.050000000000002487, -9.935914382774095801E-16 ) ) ;
#68 = EDGE_LOOP ( 'NONE', ( #213 ) ) ;
#69 = TOROIDAL_SURFACE ( 'NONE', #77, 12.25000000000000000, 8.000000000000000000 ) ;
#70 = EDGE_LOOP ( 'NONE', ( #143 ) ) ;
#71 = PERSON_AND_ORGANIZATION ( #92, #184 ) ;
#72 = COORDINATED_UNIVERSAL_TIME_OFFSET ( 1, 0, .AHEAD. ) ;
#73 = ORIENTED_EDGE ( 'NONE', *, *, #169, .T. ) ;
#74 = CLOSED_SHELL ( 'NONE', ( #36, #46, #217, #29 ) ) ;
#75 = LOCAL_TIME ( 11, 35, 18.00000000000000000, #42 ) ;
#76 = CALENDAR_DATE ( 2021, 1, 11 ) ;
#77 = AXIS2_PLACEMENT_3D ( 'NONE', #19, #153, #208 ) ;
#78 = APPROVAL_STATUS ( 'not_yet_approved' ) ;
#79 = FACE_OUTER_BOUND ( 'NONE', #70, .T. ) ;
#80 = DIRECTION ( 'NONE',  ( 3.491481338843133355E-15, -1.226656096638776648E-16, 1.000000000000000000 ) ) ;
#81 = CARTESIAN_POINT ( 'NONE',  ( 2.513866563967056016E-13, -8.817456953860941711E-15, 72.00000000000000000 ) ) ;
#82 = CYLINDRICAL_SURFACE ( 'NONE', #95, 4.249999999999998224 ) ;
#83 = FACE_OUTER_BOUND ( 'NONE', #68, .T. ) ;
#84 = FACE_BOUND ( 'NONE', #125, .T. ) ;
#85 = CIRCLE ( 'NONE', #103, 4.249999999999998224 ) ;
#86 =( NAMED_UNIT ( * ) SI_UNIT ( $, .STERADIAN. ) SOLID_ANGLE_UNIT ( ) );
#87 = EDGE_LOOP ( 'NONE', ( #159 ) ) ;
#88 = PERSON_AND_ORGANIZATION ( #92, #184 ) ;
#89 = ORIENTED_EDGE ( 'NONE', *, *, #40, .F. ) ;
#90 = VERTEX_POINT ( 'NONE', #67 ) ;
#91 = ADVANCED_FACE ( 'NONE', ( #240 ), #186, .F. ) ;
#92 = PERSON ( 'UNSPECIFIED', 'UNSPECIFIED', 'UNSPECIFIED', ('UNSPECIFIED'), ('UNSPECIFIED'), ('UNSPECIFIED') ) ;
#93 = PERSON_AND_ORGANIZATION ( #92, #184 ) ;
#94 = DATE_TIME_ROLE ( 'creation_date' ) ;
#95 = AXIS2_PLACEMENT_3D ( 'NONE', #115, #221, #57 ) ;
#96 = CARTESIAN_POINT ( 'NONE',  ( -8.551702076470480934E-31, 2.999533309458101739E-32, -2.449304821232125005E-16 ) ) ;
#97 = MANIFOLD_SOLID_BREP ( 'Corps-Déplacer/Copier1[1]', #130 ) ;
#98 = CALENDAR_DATE ( 2021, 1, 11 ) ;
#99 = PRODUCT_DEFINITION_FORMATION_WITH_SPECIFIED_SOURCE ( 'ANY', '', #185, .NOT_KNOWN. ) ;
#100 = DIRECTION ( 'NONE',  ( 4.275831445896958607E-31, 1.000000000000000000, 1.224646799147353207E-16 ) ) ;
#101 = DIRECTION ( 'NONE',  ( -3.491481338843133355E-15, 1.224646799147353207E-16, -1.000000000000000000 ) ) ;
#102 = DIRECTION ( 'NONE',  ( -3.491481338843133355E-15, 1.227517819005651059E-16, -1.000000000000000000 ) ) ;
#103 = AXIS2_PLACEMENT_3D ( 'NONE', #189, #106, #174 ) ;
#104 = PLANE ( 'NONE',  #239 ) ;
#105 = CC_DESIGN_PERSON_AND_ORGANIZATION_ASSIGNMENT ( #158, #22, ( #99 ) ) ;
#106 = DIRECTION ( 'NONE',  ( 3.491481338843133355E-15, -1.227517819005651059E-16, 1.000000000000000000 ) ) ;
#107 = DIRECTION ( 'NONE',  ( 1.000000000000000000, 0.0000000000000000000, 0.0000000000000000000 ) ) ;
#108 = AXIS2_PLACEMENT_3D ( 'NONE', #34, #117, #187 ) ;
#109 = EDGE_LOOP ( 'NONE', ( #6 ) ) ;
#110 = DESIGN_CONTEXT ( 'detailed design', #21, 'design' ) ;
#111 = APPLICATION_PROTOCOL_DEFINITION ( 'international standard', 'config_control_design', 1994, #21 ) ;
#112 = CONICAL_SURFACE ( 'NONE', #172, 4.250000000000000000, 0.7853981633974428389 ) ;
#113 = APPROVAL_DATE_TIME ( #199, #171 ) ;
#114 = FACE_OUTER_BOUND ( 'NONE', #66, .T. ) ;
#115 = CARTESIAN_POINT ( 'NONE',  ( -6.413731847436034514E-31, 0.0000000000000000000, -1.836965810494968570E-16 ) ) ;
#116 = PRODUCT_DEFINITION_SHAPE ( 'NONE', 'NONE',  #200 ) ;
#117 = DIRECTION ( 'NONE',  ( 3.491481338843133355E-15, -1.226656096638776648E-16, 1.000000000000000000 ) ) ;
#118 = CC_DESIGN_PERSON_AND_ORGANIZATION_ASSIGNMENT ( #71, #65, ( #200 ) ) ;
#119 = FACE_OUTER_BOUND ( 'NONE', #8, .T. ) ;
#120 = CYLINDRICAL_SURFACE ( 'NONE', #207, 4.999999999999997335 ) ;
#121 = AXIS2_PLACEMENT_3D ( 'NONE', #155, #204, #37 ) ;
#122 = CARTESIAN_POINT ( 'NONE',  ( 0.0000000000000000000, 0.0000000000000000000, 0.0000000000000000000 ) ) ;
#123 = VERTEX_POINT ( 'NONE', #194 ) ;
#124 = DIRECTION ( 'NONE',  ( 0.0000000000000000000, 0.0000000000000000000, 1.000000000000000000 ) ) ;
#125 = EDGE_LOOP ( 'NONE', ( #181 ) ) ;
#126 = LOCAL_TIME ( 11, 35, 18.00000000000000000, #72 ) ;
#127 = PERSON_AND_ORGANIZATION_ROLE ( 'creator' ) ;
#128 = EDGE_CURVE ( 'NONE', #123, #123, #85, .T. ) ;
#129 = DIRECTION ( 'NONE',  ( -4.275831445896958607E-31, -1.000000000000000000, -1.224646799147353207E-16 ) ) ;
#130 = CLOSED_SHELL ( 'NONE', ( #243, #180, #91, #238, #209 ) ) ;
#131 = CARTESIAN_POINT ( 'NONE',  ( 6.767167244461321968E-14, -2.149862307622075998E-15, 19.38193731461716496 ) ) ;
#132 = APPLICATION_CONTEXT ( 'configuration controlled 3d designs of mechanical parts and assemblies' ) ;
#133 = FACE_OUTER_BOUND ( 'NONE', #177, .T. ) ;
#134 = CARTESIAN_POINT ( 'NONE',  ( 5.586370142149013368E-14, 3.749399456654637451E-32, 16.00000000000000000 ) ) ;
#135 = DIRECTION ( 'NONE',  ( -3.491481338843133355E-15, 1.224646799147353207E-16, -1.000000000000000000 ) ) ;
#136 = DIRECTION ( 'NONE',  ( 4.275831445896959482E-31, 1.000000000000000000, 1.224646799147353207E-16 ) ) ;
#137 = PERSON_AND_ORGANIZATION ( #92, #184 ) ;
#138 = MECHANICAL_CONTEXT ( 'NONE', #132, 'mechanical' ) ;
#139 = CIRCLE ( 'NONE', #108, 4.050000000000002487 ) ;
#140 = EDGE_LOOP ( 'NONE', ( #43 ) ) ;
#141 = APPLICATION_PROTOCOL_DEFINITION ( 'international standard', 'config_control_design', 1994, #132 ) ;
#142 = COORDINATED_UNIVERSAL_TIME_OFFSET ( 1, 0, .AHEAD. ) ;
#143 = ORIENTED_EDGE ( 'NONE', *, *, #169, .F. ) ;
#144 = DATE_AND_TIME ( #215, #126 ) ;
#145 = EDGE_LOOP ( 'NONE', ( #41 ) ) ;
#146 = SECURITY_CLASSIFICATION ( '', '', #230 ) ;
#147 = DIRECTION ( 'NONE',  ( -3.491481338843133355E-15, 1.224646799147353207E-16, -1.000000000000000000 ) ) ;
#148 = APPROVAL_ROLE ( '' ) ;
#149 = DIRECTION ( 'NONE',  ( -4.305019875689115797E-31, -1.000000000000000000, -1.211755369248505057E-16 ) ) ;
#150 = CIRCLE ( 'NONE', #39, 4.500000000000000888 ) ;
#151 = FACE_OUTER_BOUND ( 'NONE', #214, .T. ) ;
#152 = DIRECTION ( 'NONE',  ( -4.305019875689115797E-31, -1.000000000000000000, -1.211755369248505057E-16 ) ) ;
#153 = DIRECTION ( 'NONE',  ( 3.491481338843133355E-15, -1.227517819005651059E-16, 1.000000000000000000 ) ) ;
#154 = APPROVAL_PERSON_ORGANIZATION ( #237, #171, #148 ) ;
#155 = CARTESIAN_POINT ( 'NONE',  ( 5.586370142149013368E-14, -1.964028510409041694E-15, 16.00000000000000000 ) ) ;
#156 = CALENDAR_DATE ( 2021, 1, 11 ) ;
#157 = ORIENTED_EDGE ( 'NONE', *, *, #17, .T. ) ;
#158 = PERSON_AND_ORGANIZATION ( #92, #184 ) ;
#159 = ORIENTED_EDGE ( 'NONE', *, *, #17, .F. ) ;
#160 = APPROVAL ( #25, 'UNSPECIFIED' ) ;
#161 = VERTEX_POINT ( 'NONE', #5 ) ;
#162 = EDGE_LOOP ( 'NONE', ( #179 ) ) ;
#163 = DATE_AND_TIME ( #156, #75 ) ;
#164 = PERSON_AND_ORGANIZATION ( #92, #184 ) ;
#165 = CIRCLE ( 'NONE', #121, 4.249999999999998224 ) ;
#166 = PERSON_AND_ORGANIZATION_ROLE ( 'classification_officer' ) ;
#167 = AXIS2_PLACEMENT_3D ( 'NONE', #122, #124, #107 ) ;
#168 = DIRECTION ( 'NONE',  ( -4.275831445896958607E-31, -1.000000000000000000, -1.224646799147353207E-16 ) ) ;
#169 = EDGE_CURVE ( 'NONE', #178, #178, #58, .T. ) ;
#170 = FACE_OUTER_BOUND ( 'NONE', #109, .T. ) ;
#171 = APPROVAL ( #78, 'UNSPECIFIED' ) ;
#172 = AXIS2_PLACEMENT_3D ( 'NONE', #18, #80, #149 ) ;
#173 = EDGE_CURVE ( 'NONE', #161, #161, #150, .T. ) ;
#174 = DIRECTION ( 'NONE',  ( 0.0000000000000000000, -1.000000000000000000, 0.0000000000000000000 ) ) ;
#175 = DIRECTION ( 'NONE',  ( 0.0000000000000000000, 1.000000000000000000, 0.0000000000000000000 ) ) ;
#176 = CARTESIAN_POINT ( 'NONE',  ( 6.767167244461321968E-14, 4.999999999999995559, 19.38193731461716496 ) ) ;
#177 = EDGE_LOOP ( 'NONE', ( #73 ) ) ;
#178 = VERTEX_POINT ( 'NONE', #191 ) ;
#179 = ORIENTED_EDGE ( 'NONE', *, *, #56, .T. ) ;
#180 = ADVANCED_FACE ( 'NONE', ( #224, #84 ), #183, .T. ) ;
#181 = ORIENTED_EDGE ( 'NONE', *, *, #173, .T. ) ;
#182 = CARTESIAN_POINT ( 'NONE',  ( 2.496409157272840412E-13, -8.756224613903574137E-15, 71.50000000000000000 ) ) ;
#183 = CONICAL_SURFACE ( 'NONE', #236, 4.500000000000000888, 0.7853981633974482790 ) ;
#184 = ORGANIZATION ( 'UNSPECIFIED', 'UNSPECIFIED', '' ) ;
#185 = PRODUCT ( '43215', '43215', '', ( #138 ) ) ;
#186 = PLANE ( 'NONE',  #4 ) ;
#187 = DIRECTION ( 'NONE',  ( -4.282846870592448247E-31, -1.000000000000000000, -1.226656096638776401E-16 ) ) ;
#188 = PLANE ( 'NONE',  #211 ) ;
#189 = CARTESIAN_POINT ( 'NONE',  ( 5.586370142149013368E-14, -1.964028510409041694E-15, 16.00000000000000000 ) ) ;
#190 = VERTEX_POINT ( 'NONE', #222 ) ;
#191 = CARTESIAN_POINT ( 'NONE',  ( 6.982962677686234170E-16, -4.250000000000000000, 0.1999999999999990674 ) ) ;
#192 = EDGE_LOOP ( 'NONE', ( #229 ) ) ;
#193 = CC_DESIGN_APPROVAL ( #171, ( #146 ) ) ;
#194 = CARTESIAN_POINT ( 'NONE',  ( 5.586370142149013368E-14, -4.250000000000000000, 16.00000000000000000 ) ) ;
#195 = UNCERTAINTY_MEASURE_WITH_UNIT (LENGTH_MEASURE( 1.000000000000000082E-05 ), #7, 'distance_accuracy_value', 'NONE');
#196 = CC_DESIGN_PERSON_AND_ORGANIZATION_ASSIGNMENT ( #88, #44, ( #185 ) ) ;
#197 = CALENDAR_DATE ( 2021, 1, 11 ) ;
#198 = CC_DESIGN_APPROVAL ( #160, ( #200 ) ) ;
#199 = DATE_AND_TIME ( #76, #47 ) ;
#200 = PRODUCT_DEFINITION ( 'UNKNOWN', '', #99, #110 ) ;
#201 = DIRECTION ( 'NONE',  ( 0.0000000000000000000, 1.000000000000000000, 0.0000000000000000000 ) ) ;
#202 = CIRCLE ( 'NONE', #223, 5.000000000000000888 ) ;
#203 = LOCAL_TIME ( 11, 35, 18.00000000000000000, #14 ) ;
#204 = DIRECTION ( 'NONE',  ( 3.491481338843133355E-15, -1.227517819005651059E-16, 1.000000000000000000 ) ) ;
#205 = CARTESIAN_POINT ( 'NONE',  ( 5.586370142149013368E-14, 3.749399456654637451E-32, 16.00000000000000000 ) ) ;
#206 = FACE_BOUND ( 'NONE', #162, .T. ) ;
#207 = AXIS2_PLACEMENT_3D ( 'NONE', #20, #64, #136 ) ;
#208 = DIRECTION ( 'NONE',  ( -4.390765363205566884E-31, -1.000000000000000000, -1.227517819005651059E-16 ) ) ;
#209 = ADVANCED_FACE ( 'NONE', ( #83 ), #188, .F. ) ;
#210 = APPROVAL_ROLE ( '' ) ;
#211 = AXIS2_PLACEMENT_3D ( 'NONE', #134, #3, #168 ) ;
#212 = PERSON_AND_ORGANIZATION ( #92, #184 ) ;
#213 = ORIENTED_EDGE ( 'NONE', *, *, #60, .F. ) ;
#214 = EDGE_LOOP ( 'NONE', ( #89 ) ) ;
#215 = CALENDAR_DATE ( 2021, 1, 11 ) ;
#216 = LOCAL_TIME ( 11, 35, 18.00000000000000000, #142 ) ;
#217 = ADVANCED_FACE ( 'NONE', ( #206, #79 ), #112, .T. ) ;
#218 = DIRECTION ( 'NONE',  ( 3.491481338843133355E-15, -1.224646799147353207E-16, 1.000000000000000000 ) ) ;
#219 = DATE_TIME_ROLE ( 'classification_date' ) ;
#220 = DIRECTION ( 'NONE',  ( 0.0000000000000000000, 1.000000000000000000, 0.0000000000000000000 ) ) ;
#221 = DIRECTION ( 'NONE',  ( 3.491481338843133355E-15, -1.227517819005651059E-16, 1.000000000000000000 ) ) ;
#222 = CARTESIAN_POINT ( 'NONE',  ( 2.496409157272840412E-13, 4.999999999999992006, 71.50000000000000000 ) ) ;
#223 = AXIS2_PLACEMENT_3D ( 'NONE', #182, #147, #201 ) ;
#224 = FACE_OUTER_BOUND ( 'NONE', #87, .T. ) ;
#225 = PRODUCT_RELATED_PRODUCT_CATEGORY ( 'detail', '', ( #185 ) ) ;
#226 = APPROVAL_PERSON_ORGANIZATION ( #164, #54, #210 ) ;
#227 = FACE_OUTER_BOUND ( 'NONE', #235, .T. ) ;
#228 =( NAMED_UNIT ( * ) PLANE_ANGLE_UNIT ( ) SI_UNIT ( $, .RADIAN. ) );
#229 = ORIENTED_EDGE ( 'NONE', *, *, #56, .F. ) ;
#230 = SECURITY_CLASSIFICATION_LEVEL ( 'unclassified' ) ;
#231 = ORIENTED_EDGE ( 'NONE', *, *, #128, .F. ) ;
#232 = CC_DESIGN_DATE_AND_TIME_ASSIGNMENT ( #51, #219, ( #146 ) ) ;
#233 = APPROVAL_ROLE ( '' ) ;
#234 = APPROVAL_STATUS ( 'not_yet_approved' ) ;
#235 = EDGE_LOOP ( 'NONE', ( #157 ) ) ;
#236 = AXIS2_PLACEMENT_3D ( 'NONE', #35, #135, #175 ) ;
#237 = PERSON_AND_ORGANIZATION ( #92, #184 ) ;
#238 = ADVANCED_FACE ( 'NONE', ( #170, #119 ), #69, .F. ) ;
#239 = AXIS2_PLACEMENT_3D ( 'NONE', #205, #32, #1 ) ;
#240 = FACE_OUTER_BOUND ( 'NONE', #145, .T. ) ;
#241 = MANIFOLD_SOLID_BREP ( 'Corps-Déplacer/Copier1[2]', #74 ) ;
#242 = CARTESIAN_POINT ( 'NONE',  ( 2.513866563967056016E-13, 3.374459510989167028E-32, 72.00000000000000000 ) ) ;
#243 = ADVANCED_FACE ( 'NONE', ( #227, #151 ), #120, .T. ) ;
ENDSEC;
END-ISO-10303-21;
