ISO-10303-21;
HEADER;
FILE_DESCRIPTION (( 'STEP AP203' ),
    '1' );
FILE_NAME ('43214.step',
    '2021-11-17T09:16:09',
    ( '' ),
    ( '' ),
    'SwSTEP 2.0',
    'SolidWorks 2019',
    '' );
FILE_SCHEMA (( 'CONFIG_CONTROL_DESIGN' ));
ENDSEC;

DATA;
#1 = APPROVAL_STATUS ( 'not_yet_approved' ) ;
#2 = EDGE_LOOP ( 'NONE', ( #102 ) ) ;
#3 = CONICAL_SURFACE ( 'NONE', #90, 4.999999999999999112, 0.7853981633974466137 ) ;
#4 = ADVANCED_BREP_SHAPE_REPRESENTATION ( '43214', ( #169, #96, #55 ), #30 ) ;
#5 = DATE_TIME_ROLE ( 'creation_date' ) ;
#6 = DIRECTION ( 'NONE',  ( -3.491481338843133355E-15, 1.224646799147353207E-16, -1.000000000000000000 ) ) ;
#7 = PERSON_AND_ORGANIZATION ( #166, #193 ) ;
#8 = DIRECTION ( 'NONE',  ( 0.0000000000000000000, 1.000000000000000000, 0.0000000000000000000 ) ) ;
#9 = DIRECTION ( 'NONE',  ( 3.491481338843133355E-15, -1.217917285207545432E-16, 1.000000000000000000 ) ) ;
#10 = DIRECTION ( 'NONE',  ( -4.237045877651918877E-31, -1.000000000000000000, -1.192622389734054877E-16 ) ) ;
#11 = PRODUCT_DEFINITION_SHAPE ( 'NONE', 'NONE',  #221 ) ;
#12 = APPLICATION_PROTOCOL_DEFINITION ( 'international standard', 'config_control_design', 1994, #97 ) ;
#13 = EDGE_CURVE ( 'NONE', #95, #95, #118, .T. ) ;
#14 =( NAMED_UNIT ( * ) PLANE_ANGLE_UNIT ( ) SI_UNIT ( $, .RADIAN. ) );
#15 = CC_DESIGN_PERSON_AND_ORGANIZATION_ASSIGNMENT ( #44, #175, ( #112 ) ) ;
#16 = EDGE_LOOP ( 'NONE', ( #143 ) ) ;
#17 = CC_DESIGN_PERSON_AND_ORGANIZATION_ASSIGNMENT ( #85, #194, ( #221 ) ) ;
#18 = DATE_TIME_ROLE ( 'classification_date' ) ;
#19 = EDGE_LOOP ( 'NONE', ( #206 ) ) ;
#20 = ADVANCED_FACE ( 'NONE', ( #79 ), #165, .F. ) ;
#21 = DIRECTION ( 'NONE',  ( 0.0000000000000000000, 0.0000000000000000000, 1.000000000000000000 ) ) ;
#22 = CC_DESIGN_DATE_AND_TIME_ASSIGNMENT ( #84, #18, ( #112 ) ) ;
#23 = DIRECTION ( 'NONE',  ( -3.491481338843133355E-15, 1.224646799147353207E-16, -1.000000000000000000 ) ) ;
#24 = MECHANICAL_CONTEXT ( 'NONE', #97, 'mechanical' ) ;
#25 = CARTESIAN_POINT ( 'NONE',  ( 0.0000000000000000000, 0.0000000000000000000, 0.0000000000000000000 ) ) ;
#26 = AXIS2_PLACEMENT_3D ( 'NONE', #126, #195, #113 ) ;
#27 = DIRECTION ( 'NONE',  ( -4.275831445896958607E-31, -1.000000000000000000, -1.224646799147353207E-16 ) ) ;
#28 = FACE_BOUND ( 'NONE', #67, .T. ) ;
#29 = DIRECTION ( 'NONE',  ( -4.237045877651918877E-31, -1.000000000000000000, -1.192622389734054877E-16 ) ) ;
#30 =( GEOMETRIC_REPRESENTATION_CONTEXT ( 3 ) GLOBAL_UNCERTAINTY_ASSIGNED_CONTEXT ( ( #61 ) ) GLOBAL_UNIT_ASSIGNED_CONTEXT ( ( #31, #14, #64 ) ) REPRESENTATION_CONTEXT ( 'NONE', 'WORKASPACE' ) );
#31 =( LENGTH_UNIT ( ) NAMED_UNIT ( * ) SI_UNIT ( .MILLI., .METRE. ) );
#32 = CC_DESIGN_SECURITY_CLASSIFICATION ( #112, ( #140 ) ) ;
#33 = APPROVAL ( #1, 'UNSPECIFIED' ) ;
#34 = CARTESIAN_POINT ( 'NONE',  ( 2.496409157272840412E-13, 4.999999999999990230, 71.50000000000000000 ) ) ;
#35 = AXIS2_PLACEMENT_3D ( 'NONE', #45, #9, #29 ) ;
#36 = DATE_AND_TIME ( #125, #223 ) ;
#37 = PRODUCT_RELATED_PRODUCT_CATEGORY ( 'detail', '', ( #133 ) ) ;
#38 = APPROVAL_ROLE ( '' ) ;
#39 = EDGE_CURVE ( 'NONE', #135, #135, #216, .T. ) ;
#40 = ORIENTED_EDGE ( 'NONE', *, *, #117, .T. ) ;
#41 = EDGE_CURVE ( 'NONE', #100, #100, #174, .T. ) ;
#42 = CALENDAR_DATE ( 2021, 17, 11 ) ;
#43 = FACE_OUTER_BOUND ( 'NONE', #52, .T. ) ;
#44 = PERSON_AND_ORGANIZATION ( #166, #193 ) ;
#45 = CARTESIAN_POINT ( 'NONE',  ( 6.982962677686225295E-16, -2.435834570415076443E-17, 0.1999999999999988176 ) ) ;
#46 = LOCAL_TIME ( 10, 16, 9.000000000000000000, #121 ) ;
#47 = CARTESIAN_POINT ( 'NONE',  ( 2.513866563967056016E-13, 3.374459510989167028E-32, 72.00000000000000000 ) ) ;
#48 = DIRECTION ( 'NONE',  ( 3.491481338843133355E-15, -1.224646799147353207E-16, 1.000000000000000000 ) ) ;
#49 = DATE_AND_TIME ( #42, #217 ) ;
#50 = EDGE_LOOP ( 'NONE', ( #40 ) ) ;
#51 = APPROVAL_DATE_TIME ( #191, #202 ) ;
#52 = EDGE_LOOP ( 'NONE', ( #171 ) ) ;
#53 = APPROVAL_ROLE ( '' ) ;
#54 = PERSON_AND_ORGANIZATION ( #166, #193 ) ;
#55 = AXIS2_PLACEMENT_3D ( 'NONE', #65, #21, #109 ) ;
#56 = CARTESIAN_POINT ( 'NONE',  ( 7.681258945454893382E-14, 3.749399456654639093E-32, 22.00000000000000000 ) ) ;
#57 = PERSON_AND_ORGANIZATION ( #166, #193 ) ;
#58 = CYLINDRICAL_SURFACE ( 'NONE', #103, 5.000000000000000000 ) ;
#59 = ADVANCED_FACE ( 'NONE', ( #110, #178 ), #58, .T. ) ;
#60 = DIRECTION ( 'NONE',  ( 4.275831445896958607E-31, 1.000000000000000000, 1.224646799147353207E-16 ) ) ;
#61 = UNCERTAINTY_MEASURE_WITH_UNIT (LENGTH_MEASURE( 1.000000000000000082E-05 ), #31, 'distance_accuracy_value', 'NONE');
#62 = FACE_OUTER_BOUND ( 'NONE', #2, .T. ) ;
#63 = AXIS2_PLACEMENT_3D ( 'NONE', #56, #48, #27 ) ;
#64 =( NAMED_UNIT ( * ) SI_UNIT ( $, .STERADIAN. ) SOLID_ANGLE_UNIT ( ) );
#65 = CARTESIAN_POINT ( 'NONE',  ( 0.0000000000000000000, 0.0000000000000000000, 0.0000000000000000000 ) ) ;
#66 = CARTESIAN_POINT ( 'NONE',  ( 7.681258945454893382E-14, 4.999999999999997335, 22.00000000000000000 ) ) ;
#67 = EDGE_LOOP ( 'NONE', ( #81 ) ) ;
#68 = APPROVAL_DATE_TIME ( #36, #120 ) ;
#69 = CALENDAR_DATE ( 2021, 17, 11 ) ;
#70 = ORIENTED_EDGE ( 'NONE', *, *, #41, .T. ) ;
#71 = ORIENTED_EDGE ( 'NONE', *, *, #150, .T. ) ;
#72 = APPROVAL_ROLE ( '' ) ;
#73 = PLANE ( 'NONE',  #26 ) ;
#74 = SECURITY_CLASSIFICATION_LEVEL ( 'unclassified' ) ;
#75 = DIRECTION ( 'NONE',  ( -3.491481338843133355E-15, 1.224646799147353207E-16, -1.000000000000000000 ) ) ;
#76 = DIRECTION ( 'NONE',  ( 3.491481338843133355E-15, -1.217917285207545432E-16, 1.000000000000000000 ) ) ;
#77 = CARTESIAN_POINT ( 'NONE',  ( 7.681258945454893382E-14, 4.999999999999997335, 22.00000000000000000 ) ) ;
#78 = CARTESIAN_POINT ( 'NONE',  ( -4.082242054614370247E-30, -4.800000000000000711, -1.169200593799243694E-15 ) ) ;
#79 = FACE_OUTER_BOUND ( 'NONE', #185, .T. ) ;
#80 = ADVANCED_FACE ( 'NONE', ( #114, #43 ), #162, .T. ) ;
#81 = ORIENTED_EDGE ( 'NONE', *, *, #181, .T. ) ;
#82 = DIRECTION ( 'NONE',  ( -3.491481338843133355E-15, 1.224646799147353207E-16, -1.000000000000000000 ) ) ;
#83 = CC_DESIGN_APPROVAL ( #202, ( #221 ) ) ;
#84 = DATE_AND_TIME ( #147, #152 ) ;
#85 = PERSON_AND_ORGANIZATION ( #166, #193 ) ;
#86 = CC_DESIGN_PERSON_AND_ORGANIZATION_ASSIGNMENT ( #7, #105, ( #140 ) ) ;
#87 = DIRECTION ( 'NONE',  ( 0.0000000000000000000, 1.000000000000000000, 0.0000000000000000000 ) ) ;
#88 = CARTESIAN_POINT ( 'NONE',  ( 2.513866563967056016E-13, 4.499999999999992006, 72.00000000000000000 ) ) ;
#89 = DIRECTION ( 'NONE',  ( -3.491481338843133355E-15, 1.224646799147353207E-16, -1.000000000000000000 ) ) ;
#90 = AXIS2_PLACEMENT_3D ( 'NONE', #196, #176, #8 ) ;
#91 = CIRCLE ( 'NONE', #187, 4.800000000000000711 ) ;
#92 = DIRECTION ( 'NONE',  ( 3.491481338843133355E-15, -1.217917285207545432E-16, 1.000000000000000000 ) ) ;
#93 = ADVANCED_FACE ( 'NONE', ( #132 ), #199, .T. ) ;
#94 = ADVANCED_FACE ( 'NONE', ( #145, #212 ), #3, .T. ) ;
#95 = VERTEX_POINT ( 'NONE', #77 ) ;
#96 = MANIFOLD_SOLID_BREP ( 'Corps-Déplacer/Copier1[2]', #207 ) ;
#97 = APPLICATION_CONTEXT ( 'configuration controlled 3d designs of mechanical parts and assemblies' ) ;
#98 = FACE_OUTER_BOUND ( 'NONE', #122, .T. ) ;
#99 = AXIS2_PLACEMENT_3D ( 'NONE', #179, #163, #108 ) ;
#100 = VERTEX_POINT ( 'NONE', #66 ) ;
#101 = EDGE_LOOP ( 'NONE', ( #209 ) ) ;
#102 = ORIENTED_EDGE ( 'NONE', *, *, #39, .F. ) ;
#103 = AXIS2_PLACEMENT_3D ( 'NONE', #25, #6, #60 ) ;
#104 = VERTEX_POINT ( 'NONE', #78 ) ;
#105 = PERSON_AND_ORGANIZATION_ROLE ( 'design_supplier' ) ;
#106 = APPROVAL_DATE_TIME ( #159, #33 ) ;
#107 = APPLICATION_PROTOCOL_DEFINITION ( 'international standard', 'config_control_design', 1994, #205 ) ;
#108 = DIRECTION ( 'NONE',  ( -4.275831445896958607E-31, -1.000000000000000000, -1.224646799147353207E-16 ) ) ;
#109 = DIRECTION ( 'NONE',  ( 1.000000000000000000, 0.0000000000000000000, 0.0000000000000000000 ) ) ;
#110 = FACE_OUTER_BOUND ( 'NONE', #190, .T. ) ;
#111 = DIRECTION ( 'NONE',  ( 4.275831445896958607E-31, 1.000000000000000000, 1.224646799147353207E-16 ) ) ;
#112 = SECURITY_CLASSIFICATION ( '', '', #74 ) ;
#113 = DIRECTION ( 'NONE',  ( 4.275831445896958607E-31, 1.000000000000000000, 1.224646799147353207E-16 ) ) ;
#114 = FACE_OUTER_BOUND ( 'NONE', #188, .T. ) ;
#115 = AXIS2_PLACEMENT_3D ( 'NONE', #215, #149, #214 ) ;
#116 = CC_DESIGN_APPROVAL ( #33, ( #140 ) ) ;
#117 = EDGE_CURVE ( 'NONE', #154, #154, #161, .T. ) ;
#118 = CIRCLE ( 'NONE', #129, 5.000000000000000000 ) ;
#119 = COORDINATED_UNIVERSAL_TIME_OFFSET ( 1, 0, .AHEAD. ) ;
#120 = APPROVAL ( #156, 'UNSPECIFIED' ) ;
#121 = COORDINATED_UNIVERSAL_TIME_OFFSET ( 1, 0, .AHEAD. ) ;
#122 = EDGE_LOOP ( 'NONE', ( #170 ) ) ;
#123 = PERSON_AND_ORGANIZATION ( #166, #193 ) ;
#124 = CARTESIAN_POINT ( 'NONE',  ( -2.041121027307185123E-30, 7.119948065315124931E-32, -5.846002968996218470E-16 ) ) ;
#125 = CALENDAR_DATE ( 2021, 17, 11 ) ;
#126 = CARTESIAN_POINT ( 'NONE',  ( -1.068957861474239564E-30, 3.749399456654644020E-32, -3.061616997868383141E-16 ) ) ;
#127 = VERTEX_POINT ( 'NONE', #34 ) ;
#128 = CARTESIAN_POINT ( 'NONE',  ( 0.0000000000000000000, 0.0000000000000000000, 0.0000000000000000000 ) ) ;
#129 = AXIS2_PLACEMENT_3D ( 'NONE', #172, #82, #155 ) ;
#130 = CC_DESIGN_APPROVAL ( #120, ( #112 ) ) ;
#131 = DESIGN_CONTEXT ( 'detailed design', #205, 'design' ) ;
#132 = FACE_OUTER_BOUND ( 'NONE', #101, .T. ) ;
#133 = PRODUCT ( '43214', '43214', '', ( #24 ) ) ;
#134 = CARTESIAN_POINT ( 'NONE',  ( 6.982962677686225295E-16, -2.435834570415076443E-17, 0.1999999999999988176 ) ) ;
#135 = VERTEX_POINT ( 'NONE', #201 ) ;
#136 = EDGE_LOOP ( 'NONE', ( #139 ) ) ;
#137 = SHAPE_DEFINITION_REPRESENTATION ( #11, #4 ) ;
#138 = AXIS2_PLACEMENT_3D ( 'NONE', #151, #75, #218 ) ;
#139 = ORIENTED_EDGE ( 'NONE', *, *, #150, .F. ) ;
#140 = PRODUCT_DEFINITION_FORMATION_WITH_SPECIFIED_SOURCE ( 'ANY', '', #133, .NOT_KNOWN. ) ;
#141 = PERSON_AND_ORGANIZATION_ROLE ( 'design_owner' ) ;
#142 = ORIENTED_EDGE ( 'NONE', *, *, #117, .F. ) ;
#143 = ORIENTED_EDGE ( 'NONE', *, *, #181, .F. ) ;
#144 = APPROVAL_STATUS ( 'not_yet_approved' ) ;
#145 = FACE_BOUND ( 'NONE', #50, .T. ) ;
#146 = CIRCLE ( 'NONE', #167, 4.999999999999999112 ) ;
#147 = CALENDAR_DATE ( 2021, 17, 11 ) ;
#148 = PLANE ( 'NONE',  #63 ) ;
#149 = DIRECTION ( 'NONE',  ( -3.491481338843133355E-15, 1.224646799147353207E-16, -1.000000000000000000 ) ) ;
#150 = EDGE_CURVE ( 'NONE', #127, #127, #146, .T. ) ;
#151 = CARTESIAN_POINT ( 'NONE',  ( 2.513866563967056016E-13, -8.817456953860941711E-15, 72.00000000000000000 ) ) ;
#152 = LOCAL_TIME ( 10, 16, 9.000000000000000000, #173 ) ;
#153 = CALENDAR_DATE ( 2021, 17, 11 ) ;
#154 = VERTEX_POINT ( 'NONE', #88 ) ;
#155 = DIRECTION ( 'NONE',  ( 0.0000000000000000000, 1.000000000000000000, 0.0000000000000000000 ) ) ;
#156 = APPROVAL_STATUS ( 'not_yet_approved' ) ;
#157 = COORDINATED_UNIVERSAL_TIME_OFFSET ( 1, 0, .AHEAD. ) ;
#158 = FACE_OUTER_BOUND ( 'NONE', #16, .T. ) ;
#159 = DATE_AND_TIME ( #153, #183 ) ;
#160 = DIRECTION ( 'NONE',  ( -3.491481338843133355E-15, 1.224646799147353207E-16, -1.000000000000000000 ) ) ;
#161 = CIRCLE ( 'NONE', #138, 4.500000000000000888 ) ;
#162 = CYLINDRICAL_SURFACE ( 'NONE', #198, 4.999999999999999112 ) ;
#163 = DIRECTION ( 'NONE',  ( 3.491481338843133355E-15, -1.224646799147353207E-16, 1.000000000000000000 ) ) ;
#164 = ADVANCED_FACE ( 'NONE', ( #98 ), #148, .F. ) ;
#165 = PLANE ( 'NONE',  #192 ) ;
#166 = PERSON ( 'UNSPECIFIED', 'UNSPECIFIED', 'UNSPECIFIED', ('UNSPECIFIED'), ('UNSPECIFIED'), ('UNSPECIFIED') ) ;
#167 = AXIS2_PLACEMENT_3D ( 'NONE', #180, #160, #87 ) ;
#168 = APPROVAL_PERSON_ORGANIZATION ( #57, #120, #53 ) ;
#169 = MANIFOLD_SOLID_BREP ( 'Corps-Déplacer/Copier1[1]', #211 ) ;
#170 = ORIENTED_EDGE ( 'NONE', *, *, #13, .T. ) ;
#171 = ORIENTED_EDGE ( 'NONE', *, *, #13, .F. ) ;
#172 = CARTESIAN_POINT ( 'NONE',  ( 7.681258945454893382E-14, -2.694222958124176809E-15, 22.00000000000000000 ) ) ;
#173 = COORDINATED_UNIVERSAL_TIME_OFFSET ( 1, 0, .AHEAD. ) ;
#174 = CIRCLE ( 'NONE', #115, 5.000000000000000000 ) ;
#175 = PERSON_AND_ORGANIZATION_ROLE ( 'classification_officer' ) ;
#176 = DIRECTION ( 'NONE',  ( -3.491481338843133355E-15, 1.224646799147353207E-16, -1.000000000000000000 ) ) ;
#177 = PERSON_AND_ORGANIZATION_ROLE ( 'creator' ) ;
#178 = FACE_OUTER_BOUND ( 'NONE', #19, .T. ) ;
#179 = CARTESIAN_POINT ( 'NONE',  ( 7.681258945454893382E-14, 3.749399456654639093E-32, 22.00000000000000000 ) ) ;
#180 = CARTESIAN_POINT ( 'NONE',  ( 2.496409157272840412E-13, -8.756224613903574137E-15, 71.50000000000000000 ) ) ;
#181 = EDGE_CURVE ( 'NONE', #104, #104, #91, .T. ) ;
#182 = DIRECTION ( 'NONE',  ( 4.275831445896958607E-31, 1.000000000000000000, 1.224646799147353207E-16 ) ) ;
#183 = LOCAL_TIME ( 10, 16, 9.000000000000000000, #189 ) ;
#184 = APPROVAL_PERSON_ORGANIZATION ( #210, #202, #38 ) ;
#185 = EDGE_LOOP ( 'NONE', ( #142 ) ) ;
#186 = CC_DESIGN_PERSON_AND_ORGANIZATION_ASSIGNMENT ( #208, #141, ( #133 ) ) ;
#187 = AXIS2_PLACEMENT_3D ( 'NONE', #124, #92, #213 ) ;
#188 = EDGE_LOOP ( 'NONE', ( #71 ) ) ;
#189 = COORDINATED_UNIVERSAL_TIME_OFFSET ( 1, 0, .AHEAD. ) ;
#190 = EDGE_LOOP ( 'NONE', ( #70 ) ) ;
#191 = DATE_AND_TIME ( #69, #46 ) ;
#192 = AXIS2_PLACEMENT_3D ( 'NONE', #47, #23, #111 ) ;
#193 = ORGANIZATION ( 'UNSPECIFIED', 'UNSPECIFIED', '' ) ;
#194 = PERSON_AND_ORGANIZATION_ROLE ( 'creator' ) ;
#195 = DIRECTION ( 'NONE',  ( -3.491481338843133355E-15, 1.224646799147353207E-16, -1.000000000000000000 ) ) ;
#196 = CARTESIAN_POINT ( 'NONE',  ( 2.496409157272840412E-13, -8.756224613903574137E-15, 71.50000000000000000 ) ) ;
#197 = ADVANCED_FACE ( 'NONE', ( #28, #62 ), #220, .T. ) ;
#198 = AXIS2_PLACEMENT_3D ( 'NONE', #128, #89, #182 ) ;
#199 = PLANE ( 'NONE',  #99 ) ;
#200 = CC_DESIGN_PERSON_AND_ORGANIZATION_ASSIGNMENT ( #54, #177, ( #140 ) ) ;
#201 = CARTESIAN_POINT ( 'NONE',  ( 6.982962677686203602E-16, -5.000000000000000000, 0.1999999999999982070 ) ) ;
#202 = APPROVAL ( #144, 'UNSPECIFIED' ) ;
#203 = AXIS2_PLACEMENT_3D ( 'NONE', #134, #76, #10 ) ;
#204 = APPROVAL_PERSON_ORGANIZATION ( #123, #33, #72 ) ;
#205 = APPLICATION_CONTEXT ( 'configuration controlled 3d designs of mechanical parts and assemblies' ) ;
#206 = ORIENTED_EDGE ( 'NONE', *, *, #39, .T. ) ;
#207 = CLOSED_SHELL ( 'NONE', ( #59, #93, #197, #222 ) ) ;
#208 = PERSON_AND_ORGANIZATION ( #166, #193 ) ;
#209 = ORIENTED_EDGE ( 'NONE', *, *, #41, .F. ) ;
#210 = PERSON_AND_ORGANIZATION ( #166, #193 ) ;
#211 = CLOSED_SHELL ( 'NONE', ( #164, #80, #94, #20 ) ) ;
#212 = FACE_OUTER_BOUND ( 'NONE', #136, .T. ) ;
#213 = DIRECTION ( 'NONE',  ( -4.252335473556634944E-31, -1.000000000000000000, -1.217917285207545432E-16 ) ) ;
#214 = DIRECTION ( 'NONE',  ( 0.0000000000000000000, 1.000000000000000000, 0.0000000000000000000 ) ) ;
#215 = CARTESIAN_POINT ( 'NONE',  ( 7.681258945454893382E-14, -2.694222958124176809E-15, 22.00000000000000000 ) ) ;
#216 = CIRCLE ( 'NONE', #35, 5.000000000000000000 ) ;
#217 = LOCAL_TIME ( 10, 16, 9.000000000000000000, #119 ) ;
#218 = DIRECTION ( 'NONE',  ( 0.0000000000000000000, 1.000000000000000000, 0.0000000000000000000 ) ) ;
#219 = CC_DESIGN_DATE_AND_TIME_ASSIGNMENT ( #49, #5, ( #221 ) ) ;
#220 = CONICAL_SURFACE ( 'NONE', #203, 5.000000000000000000, 0.7853981633974489451 ) ;
#221 = PRODUCT_DEFINITION ( 'UNKNOWN', '', #140, #131 ) ;
#222 = ADVANCED_FACE ( 'NONE', ( #158 ), #73, .T. ) ;
#223 = LOCAL_TIME ( 10, 16, 9.000000000000000000, #157 ) ;
ENDSEC;
END-ISO-10303-21;
