ISO-10303-21;
HEADER;
FILE_DESCRIPTION (( 'STEP AP203' ),
    '1' );
FILE_NAME ('43184.step',
    '2021-11-12T10:08:57',
    ( '' ),
    ( '' ),
    'SwSTEP 2.0',
    'SolidWorks 2019',
    '' );
FILE_SCHEMA (( 'CONFIG_CONTROL_DESIGN' ));
ENDSEC;

DATA;
#1 = ORIENTED_EDGE ( 'NONE', *, *, #124, .F. ) ;
#2 = PERSON_AND_ORGANIZATION_ROLE ( 'design_supplier' ) ;
#3 = CIRCLE ( 'NONE', #38, 4.500000000000000888 ) ;
#4 = LOCAL_TIME ( 11, 8, 57.00000000000000000, #148 ) ;
#5 = DIRECTION ( 'NONE',  ( -3.491481338843133355E-15, 1.224646799147353207E-16, -1.000000000000000000 ) ) ;
#6 = UNCERTAINTY_MEASURE_WITH_UNIT (LENGTH_MEASURE( 1.000000000000000082E-05 ), #171, 'distance_accuracy_value', 'NONE');
#7 = DIRECTION ( 'NONE',  ( -3.491481338843133355E-15, 1.224646799147353207E-16, -1.000000000000000000 ) ) ;
#8 = COORDINATED_UNIVERSAL_TIME_OFFSET ( 1, 0, .AHEAD. ) ;
#9 = CC_DESIGN_PERSON_AND_ORGANIZATION_ASSIGNMENT ( #34, #143, ( #116 ) ) ;
#10 = APPROVAL_STATUS ( 'not_yet_approved' ) ;
#11 = FACE_OUTER_BOUND ( 'NONE', #82, .T. ) ;
#12 = CC_DESIGN_APPROVAL ( #47, ( #116 ) ) ;
#13 = DIRECTION ( 'NONE',  ( -3.491481338843133355E-15, 1.224646799147353207E-16, -1.000000000000000000 ) ) ;
#14 = ADVANCED_BREP_SHAPE_REPRESENTATION ( '43184', ( #67, #65, #168 ), #33 ) ;
#15 = CC_DESIGN_DATE_AND_TIME_ASSIGNMENT ( #75, #172, ( #50 ) ) ;
#16 = ORIENTED_EDGE ( 'NONE', *, *, #56, .F. ) ;
#17 = AXIS2_PLACEMENT_3D ( 'NONE', #135, #7, #28 ) ;
#18 = PRODUCT_DEFINITION_SHAPE ( 'NONE', 'NONE',  #50 ) ;
#19 = PERSON_AND_ORGANIZATION ( #55, #66 ) ;
#20 = ORIENTED_EDGE ( 'NONE', *, *, #56, .T. ) ;
#21 = APPLICATION_CONTEXT ( 'configuration controlled 3d designs of mechanical parts and assemblies' ) ;
#22 = PERSON_AND_ORGANIZATION ( #55, #66 ) ;
#23 = DATE_AND_TIME ( #36, #86 ) ;
#24 = CARTESIAN_POINT ( 'NONE',  ( 8.728703347107833388E-14, 3.374459510989175239E-32, 25.00000000000000000 ) ) ;
#25 = FACE_BOUND ( 'NONE', #98, .T. ) ;
#26 = ADVANCED_FACE ( 'NONE', ( #170, #25 ), #71, .T. ) ;
#27 = APPROVAL_ROLE ( '' ) ;
#28 = DIRECTION ( 'NONE',  ( 4.275831445896958607E-31, 1.000000000000000000, 1.224646799147353207E-16 ) ) ;
#29 = CARTESIAN_POINT ( 'NONE',  ( 0.0000000000000000000, 0.0000000000000000000, 0.0000000000000000000 ) ) ;
#30 = LOCAL_TIME ( 11, 8, 57.00000000000000000, #8 ) ;
#31 = EDGE_CURVE ( 'NONE', #137, #137, #41, .T. ) ;
#32 = ORIENTED_EDGE ( 'NONE', *, *, #31, .T. ) ;
#33 =( GEOMETRIC_REPRESENTATION_CONTEXT ( 3 ) GLOBAL_UNCERTAINTY_ASSIGNED_CONTEXT ( ( #6 ) ) GLOBAL_UNIT_ASSIGNED_CONTEXT ( ( #171, #59, #60 ) ) REPRESENTATION_CONTEXT ( 'NONE', 'WORKASPACE' ) );
#34 = PERSON_AND_ORGANIZATION ( #55, #66 ) ;
#35 = PERSON_AND_ORGANIZATION_ROLE ( 'creator' ) ;
#36 = CALENDAR_DATE ( 2021, 12, 11 ) ;
#37 = APPROVAL_DATE_TIME ( #84, #182 ) ;
#38 = AXIS2_PLACEMENT_3D ( 'NONE', #72, #51, #146 ) ;
#39 = CC_DESIGN_DATE_AND_TIME_ASSIGNMENT ( #158, #191, ( #116 ) ) ;
#40 = DIRECTION ( 'NONE',  ( -3.491481338843133355E-15, 1.224646799147353207E-16, -1.000000000000000000 ) ) ;
#41 = CIRCLE ( 'NONE', #123, 4.000000000000004441 ) ;
#42 = DIRECTION ( 'NONE',  ( 1.000000000000000000, 0.0000000000000000000, 0.0000000000000000000 ) ) ;
#43 = PLANE ( 'NONE',  #97 ) ;
#44 = CARTESIAN_POINT ( 'NONE',  ( 0.0000000000000000000, 0.0000000000000000000, 0.0000000000000000000 ) ) ;
#45 = CARTESIAN_POINT ( 'NONE',  ( 2.321835090330683366E-13, 4.499999999999990230, 66.50000000000000000 ) ) ;
#46 = VERTEX_POINT ( 'NONE', #80 ) ;
#47 = APPROVAL ( #68, 'UNSPECIFIED' ) ;
#48 = DIRECTION ( 'NONE',  ( 3.491481338843133355E-15, -1.224646799147353207E-16, 1.000000000000000000 ) ) ;
#49 = DIRECTION ( 'NONE',  ( 4.275831445896958607E-31, 1.000000000000000000, 1.224646799147352961E-16 ) ) ;
#50 = PRODUCT_DEFINITION ( 'UNKNOWN', '', #176, #87 ) ;
#51 = DIRECTION ( 'NONE',  ( -3.491481338843133355E-15, 1.224646799147353207E-16, -1.000000000000000000 ) ) ;
#52 = CIRCLE ( 'NONE', #112, 4.500000000000000888 ) ;
#53 = EDGE_LOOP ( 'NONE', ( #20 ) ) ;
#54 = PERSON_AND_ORGANIZATION ( #55, #66 ) ;
#55 = PERSON ( 'UNSPECIFIED', 'UNSPECIFIED', 'UNSPECIFIED', ('UNSPECIFIED'), ('UNSPECIFIED'), ('UNSPECIFIED') ) ;
#56 = EDGE_CURVE ( 'NONE', #94, #94, #183, .T. ) ;
#57 = DIRECTION ( 'NONE',  ( -3.491481338843133355E-15, 1.224646799147353207E-16, -1.000000000000000000 ) ) ;
#58 = DIRECTION ( 'NONE',  ( -3.491481338843133355E-15, 1.224646799147353207E-16, -1.000000000000000000 ) ) ;
#59 =( NAMED_UNIT ( * ) PLANE_ANGLE_UNIT ( ) SI_UNIT ( $, .RADIAN. ) );
#60 =( NAMED_UNIT ( * ) SI_UNIT ( $, .STERADIAN. ) SOLID_ANGLE_UNIT ( ) );
#61 = CIRCLE ( 'NONE', #101, 4.499999999999998224 ) ;
#62 = PLANE ( 'NONE',  #17 ) ;
#63 = FACE_OUTER_BOUND ( 'NONE', #53, .T. ) ;
#64 = CARTESIAN_POINT ( 'NONE',  ( 2.339292497024899474E-13, -8.205133554287267548E-15, 67.00000000000000000 ) ) ;
#65 = MANIFOLD_SOLID_BREP ( 'Corps-Déplacer/Copier1[2]', #150 ) ;
#66 = ORGANIZATION ( 'UNSPECIFIED', 'UNSPECIFIED', '' ) ;
#67 = MANIFOLD_SOLID_BREP ( 'Corps-Déplacer/Copier1[1]', #90 ) ;
#68 = APPROVAL_STATUS ( 'not_yet_approved' ) ;
#69 = COORDINATED_UNIVERSAL_TIME_OFFSET ( 1, 0, .AHEAD. ) ;
#70 = ADVANCED_FACE ( 'NONE', ( #11, #79 ), #88, .T. ) ;
#71 = CONICAL_SURFACE ( 'NONE', #203, 4.000000000000004441, 0.7853981633974415066 ) ;
#72 = CARTESIAN_POINT ( 'NONE',  ( 8.728703347107833388E-14, -3.061616997868383043E-15, 25.00000000000000000 ) ) ;
#73 = FACE_OUTER_BOUND ( 'NONE', #166, .T. ) ;
#74 = EDGE_LOOP ( 'NONE', ( #188 ) ) ;
#75 = DATE_AND_TIME ( #151, #30 ) ;
#76 = PRODUCT_RELATED_PRODUCT_CATEGORY ( 'detail', '', ( #81 ) ) ;
#77 = AXIS2_PLACEMENT_3D ( 'NONE', #169, #147, #201 ) ;
#78 = DIRECTION ( 'NONE',  ( -3.491481338843133355E-15, 1.224646799147353207E-16, -1.000000000000000000 ) ) ;
#79 = FACE_OUTER_BOUND ( 'NONE', #140, .T. ) ;
#80 = CARTESIAN_POINT ( 'NONE',  ( 8.728703347107833388E-14, 4.499999999999997335, 25.00000000000000000 ) ) ;
#81 = PRODUCT ( '43184', '43184', '', ( #197 ) ) ;
#82 = EDGE_LOOP ( 'NONE', ( #193 ) ) ;
#83 = ADVANCED_FACE ( 'NONE', ( #63 ), #155, .T. ) ;
#84 = DATE_AND_TIME ( #96, #164 ) ;
#85 = DIRECTION ( 'NONE',  ( 3.491481338843133355E-15, -1.224646799147353207E-16, 1.000000000000000000 ) ) ;
#86 = LOCAL_TIME ( 11, 8, 57.00000000000000000, #163 ) ;
#87 = DESIGN_CONTEXT ( 'detailed design', #152, 'design' ) ;
#88 = CYLINDRICAL_SURFACE ( 'NONE', #189, 4.500000000000000888 ) ;
#89 = PERSON_AND_ORGANIZATION ( #55, #66 ) ;
#90 = CLOSED_SHELL ( 'NONE', ( #175, #145, #26, #136 ) ) ;
#91 = EDGE_CURVE ( 'NONE', #157, #157, #61, .T. ) ;
#92 = CARTESIAN_POINT ( 'NONE',  ( 0.0000000000000000000, 4.500000000000000000, 0.0000000000000000000 ) ) ;
#93 = CARTESIAN_POINT ( 'NONE',  ( 2.321835090330683366E-13, -8.143901214329899974E-15, 66.50000000000000000 ) ) ;
#94 = VERTEX_POINT ( 'NONE', #92 ) ;
#95 = EDGE_LOOP ( 'NONE', ( #192 ) ) ;
#96 = CALENDAR_DATE ( 2021, 12, 11 ) ;
#97 = AXIS2_PLACEMENT_3D ( 'NONE', #102, #48, #105 ) ;
#98 = EDGE_LOOP ( 'NONE', ( #32 ) ) ;
#99 = APPROVAL_ROLE ( '' ) ;
#100 = FACE_OUTER_BOUND ( 'NONE', #128, .T. ) ;
#101 = AXIS2_PLACEMENT_3D ( 'NONE', #93, #165, #113 ) ;
#102 = CARTESIAN_POINT ( 'NONE',  ( 8.728703347107833388E-14, 3.374459510989175239E-32, 25.00000000000000000 ) ) ;
#103 = CC_DESIGN_PERSON_AND_ORGANIZATION_ASSIGNMENT ( #202, #167, ( #81 ) ) ;
#104 = APPROVAL_PERSON_ORGANIZATION ( #111, #47, #99 ) ;
#105 = DIRECTION ( 'NONE',  ( -4.275831445896958607E-31, -1.000000000000000000, -1.224646799147353207E-16 ) ) ;
#106 = ORIENTED_EDGE ( 'NONE', *, *, #31, .F. ) ;
#107 = DIRECTION ( 'NONE',  ( 0.0000000000000000000, 0.0000000000000000000, 1.000000000000000000 ) ) ;
#108 = FACE_OUTER_BOUND ( 'NONE', #74, .T. ) ;
#109 = EDGE_CURVE ( 'NONE', #130, #130, #52, .T. ) ;
#110 = EDGE_LOOP ( 'NONE', ( #153 ) ) ;
#111 = PERSON_AND_ORGANIZATION ( #55, #66 ) ;
#112 = AXIS2_PLACEMENT_3D ( 'NONE', #177, #40, #198 ) ;
#113 = DIRECTION ( 'NONE',  ( 0.0000000000000000000, 1.000000000000000000, 0.0000000000000000000 ) ) ;
#114 = APPROVAL_DATE_TIME ( #138, #117 ) ;
#115 = DIRECTION ( 'NONE',  ( -4.275831445896958607E-31, -1.000000000000000000, -1.224646799147353207E-16 ) ) ;
#116 = SECURITY_CLASSIFICATION ( '', '', #142 ) ;
#117 = APPROVAL ( #10, 'UNSPECIFIED' ) ;
#118 = APPLICATION_PROTOCOL_DEFINITION ( 'international standard', 'config_control_design', 1994, #21 ) ;
#119 = DIRECTION ( 'NONE',  ( 0.0000000000000000000, 1.000000000000000000, 0.0000000000000000000 ) ) ;
#120 = FACE_OUTER_BOUND ( 'NONE', #149, .T. ) ;
#121 = DIRECTION ( 'NONE',  ( 4.275831445896958607E-31, 1.000000000000000000, 1.224646799147352961E-16 ) ) ;
#122 = PERSON_AND_ORGANIZATION ( #55, #66 ) ;
#123 = AXIS2_PLACEMENT_3D ( 'NONE', #64, #5, #132 ) ;
#124 = EDGE_CURVE ( 'NONE', #46, #46, #3, .T. ) ;
#125 = SHAPE_DEFINITION_REPRESENTATION ( #18, #14 ) ;
#126 = ORIENTED_EDGE ( 'NONE', *, *, #91, .T. ) ;
#127 = CALENDAR_DATE ( 2021, 12, 11 ) ;
#128 = EDGE_LOOP ( 'NONE', ( #1 ) ) ;
#129 = CARTESIAN_POINT ( 'NONE',  ( 0.0000000000000000000, 0.0000000000000000000, 0.0000000000000000000 ) ) ;
#130 = VERTEX_POINT ( 'NONE', #194 ) ;
#131 = AXIS2_PLACEMENT_3D ( 'NONE', #200, #58, #185 ) ;
#132 = DIRECTION ( 'NONE',  ( 0.0000000000000000000, 1.000000000000000000, 0.0000000000000000000 ) ) ;
#133 = AXIS2_PLACEMENT_3D ( 'NONE', #129, #13, #121 ) ;
#134 = CYLINDRICAL_SURFACE ( 'NONE', #133, 4.499999999999999112 ) ;
#135 = CARTESIAN_POINT ( 'NONE',  ( 2.339292497024899474E-13, 2.999519565323707005E-32, 67.00000000000000000 ) ) ;
#136 = ADVANCED_FACE ( 'NONE', ( #120 ), #62, .F. ) ;
#137 = VERTEX_POINT ( 'NONE', #196 ) ;
#138 = DATE_AND_TIME ( #187, #4 ) ;
#139 = LOCAL_TIME ( 11, 8, 57.00000000000000000, #69 ) ;
#140 = EDGE_LOOP ( 'NONE', ( #16 ) ) ;
#141 = APPROVAL_STATUS ( 'not_yet_approved' ) ;
#142 = SECURITY_CLASSIFICATION_LEVEL ( 'unclassified' ) ;
#143 = PERSON_AND_ORGANIZATION_ROLE ( 'classification_officer' ) ;
#144 = APPROVAL_DATE_TIME ( #23, #47 ) ;
#145 = ADVANCED_FACE ( 'NONE', ( #73, #184 ), #134, .T. ) ;
#146 = DIRECTION ( 'NONE',  ( 0.0000000000000000000, 1.000000000000000000, 0.0000000000000000000 ) ) ;
#147 = DIRECTION ( 'NONE',  ( -3.491481338843133355E-15, 1.224646799147353207E-16, -1.000000000000000000 ) ) ;
#148 = COORDINATED_UNIVERSAL_TIME_OFFSET ( 1, 0, .AHEAD. ) ;
#149 = EDGE_LOOP ( 'NONE', ( #106 ) ) ;
#150 = CLOSED_SHELL ( 'NONE', ( #83, #70, #195 ) ) ;
#151 = CALENDAR_DATE ( 2021, 12, 11 ) ;
#152 = APPLICATION_CONTEXT ( 'configuration controlled 3d designs of mechanical parts and assemblies' ) ;
#153 = ORIENTED_EDGE ( 'NONE', *, *, #91, .F. ) ;
#154 = APPROVAL_PERSON_ORGANIZATION ( #54, #182, #160 ) ;
#155 = PLANE ( 'NONE',  #131 ) ;
#156 = CC_DESIGN_PERSON_AND_ORGANIZATION_ASSIGNMENT ( #22, #2, ( #176 ) ) ;
#157 = VERTEX_POINT ( 'NONE', #45 ) ;
#158 = DATE_AND_TIME ( #127, #139 ) ;
#159 = CC_DESIGN_APPROVAL ( #117, ( #50 ) ) ;
#160 = APPROVAL_ROLE ( '' ) ;
#161 = APPROVAL_PERSON_ORGANIZATION ( #122, #117, #27 ) ;
#162 = CC_DESIGN_PERSON_AND_ORGANIZATION_ASSIGNMENT ( #89, #178, ( #50 ) ) ;
#163 = COORDINATED_UNIVERSAL_TIME_OFFSET ( 1, 0, .AHEAD. ) ;
#164 = LOCAL_TIME ( 11, 8, 57.00000000000000000, #174 ) ;
#165 = DIRECTION ( 'NONE',  ( -3.491481338843133355E-15, 1.224646799147353207E-16, -1.000000000000000000 ) ) ;
#166 = EDGE_LOOP ( 'NONE', ( #126 ) ) ;
#167 = PERSON_AND_ORGANIZATION_ROLE ( 'design_owner' ) ;
#168 = AXIS2_PLACEMENT_3D ( 'NONE', #44, #107, #42 ) ;
#169 = CARTESIAN_POINT ( 'NONE',  ( -1.924124150653631285E-30, 6.748919021978358140E-32, -5.510910596163088569E-16 ) ) ;
#170 = FACE_OUTER_BOUND ( 'NONE', #110, .T. ) ;
#171 =( LENGTH_UNIT ( ) NAMED_UNIT ( * ) SI_UNIT ( .MILLI., .METRE. ) );
#172 = DATE_TIME_ROLE ( 'creation_date' ) ;
#173 = CC_DESIGN_APPROVAL ( #182, ( #176 ) ) ;
#174 = COORDINATED_UNIVERSAL_TIME_OFFSET ( 1, 0, .AHEAD. ) ;
#175 = ADVANCED_FACE ( 'NONE', ( #108 ), #180, .F. ) ;
#176 = PRODUCT_DEFINITION_FORMATION_WITH_SPECIFIED_SOURCE ( 'ANY', '', #81, .NOT_KNOWN. ) ;
#177 = CARTESIAN_POINT ( 'NONE',  ( 8.728703347107833388E-14, -3.061616997868383043E-15, 25.00000000000000000 ) ) ;
#178 = PERSON_AND_ORGANIZATION_ROLE ( 'creator' ) ;
#179 = AXIS2_PLACEMENT_3D ( 'NONE', #24, #85, #115 ) ;
#180 = PLANE ( 'NONE',  #179 ) ;
#181 = APPLICATION_PROTOCOL_DEFINITION ( 'international standard', 'config_control_design', 1994, #152 ) ;
#182 = APPROVAL ( #141, 'UNSPECIFIED' ) ;
#183 = CIRCLE ( 'NONE', #77, 4.500000000000000000 ) ;
#184 = FACE_OUTER_BOUND ( 'NONE', #95, .T. ) ;
#185 = DIRECTION ( 'NONE',  ( 4.275831445896958607E-31, 1.000000000000000000, 1.224646799147353207E-16 ) ) ;
#186 = CARTESIAN_POINT ( 'NONE',  ( 2.339292497024899474E-13, -8.205133554287267548E-15, 67.00000000000000000 ) ) ;
#187 = CALENDAR_DATE ( 2021, 12, 11 ) ;
#188 = ORIENTED_EDGE ( 'NONE', *, *, #109, .T. ) ;
#189 = AXIS2_PLACEMENT_3D ( 'NONE', #29, #78, #49 ) ;
#190 = CC_DESIGN_PERSON_AND_ORGANIZATION_ASSIGNMENT ( #19, #35, ( #176 ) ) ;
#191 = DATE_TIME_ROLE ( 'classification_date' ) ;
#192 = ORIENTED_EDGE ( 'NONE', *, *, #109, .F. ) ;
#193 = ORIENTED_EDGE ( 'NONE', *, *, #124, .T. ) ;
#194 = CARTESIAN_POINT ( 'NONE',  ( 8.728703347107833388E-14, 4.499999999999997335, 25.00000000000000000 ) ) ;
#195 = ADVANCED_FACE ( 'NONE', ( #100 ), #43, .T. ) ;
#196 = CARTESIAN_POINT ( 'NONE',  ( 2.339292497024899474E-13, 3.999999999999996447, 67.00000000000000000 ) ) ;
#197 = MECHANICAL_CONTEXT ( 'NONE', #21, 'mechanical' ) ;
#198 = DIRECTION ( 'NONE',  ( 0.0000000000000000000, 1.000000000000000000, 0.0000000000000000000 ) ) ;
#199 = CC_DESIGN_SECURITY_CLASSIFICATION ( #116, ( #176 ) ) ;
#200 = CARTESIAN_POINT ( 'NONE',  ( -9.620620753268156427E-31, 3.374459510989179070E-32, -2.755455298081544285E-16 ) ) ;
#201 = DIRECTION ( 'NONE',  ( 4.275831445896958607E-31, 1.000000000000000000, 1.224646799147352961E-16 ) ) ;
#202 = PERSON_AND_ORGANIZATION ( #55, #66 ) ;
#203 = AXIS2_PLACEMENT_3D ( 'NONE', #186, #57, #119 ) ;
ENDSEC;
END-ISO-10303-21;
