ISO-10303-21;
HEADER;
FILE_DESCRIPTION (( 'STEP AP203' ),
    '1' );
FILE_NAME ('43114.step',
    '2021-12-06T12:59:43',
    ( '' ),
    ( '' ),
    'SwSTEP 2.0',
    'SolidWorks 2019',
    '' );
FILE_SCHEMA (( 'CONFIG_CONTROL_DESIGN' ));
ENDSEC;

DATA;
#1 = FACE_OUTER_BOUND ( 'NONE', #121, .T. ) ;
#2 = ADVANCED_FACE ( 'NONE', ( #1, #144 ), #146, .T. ) ;
#3 = CIRCLE ( 'NONE', #63, 25.00000000000000000 ) ;
#4 = EDGE_LOOP ( 'NONE', ( #29 ) ) ;
#5 = APPROVAL_STATUS ( 'not_yet_approved' ) ;
#6 = CC_DESIGN_SECURITY_CLASSIFICATION ( #26, ( #108 ) ) ;
#7 = APPROVAL_ROLE ( '' ) ;
#8 = APPROVAL_ROLE ( '' ) ;
#9 = PERSON_AND_ORGANIZATION_ROLE ( 'creator' ) ;
#10 = PERSON_AND_ORGANIZATION ( #59, #58 ) ;
#11 = CC_DESIGN_APPROVAL ( #81, ( #44 ) ) ;
#12 = APPROVAL ( #163, 'UNSPECIFIED' ) ;
#13 = EDGE_LOOP ( 'NONE', ( #136 ) ) ;
#14 = CARTESIAN_POINT ( 'NONE',  ( 4.888073874380387486E-15, 25.00000000000000000, 1.399999999999999911 ) ) ;
#15 = CARTESIAN_POINT ( 'NONE',  ( -3.573373422642457301E-30, 1.611476582798913975E-31, -1.023454825001716378E-15 ) ) ;
#16 =( NAMED_UNIT ( * ) SI_UNIT ( $, .STERADIAN. ) SOLID_ANGLE_UNIT ( ) );
#17 = AXIS2_PLACEMENT_3D ( 'NONE', #82, #107, #119 ) ;
#18 = CC_DESIGN_PERSON_AND_ORGANIZATION_ASSIGNMENT ( #10, #151, ( #26 ) ) ;
#19 =( NAMED_UNIT ( * ) PLANE_ANGLE_UNIT ( ) SI_UNIT ( $, .RADIAN. ) );
#20 = CALENDAR_DATE ( 2021, 6, 12 ) ;
#21 = PERSON_AND_ORGANIZATION ( #59, #58 ) ;
#22 = PERSON_AND_ORGANIZATION_ROLE ( 'creator' ) ;
#23 = DATE_AND_TIME ( #89, #76 ) ;
#24 = MANIFOLD_SOLID_BREP ( 'Corps-Déplacer/Copier1', #100 ) ;
#25 = AXIS2_PLACEMENT_3D ( 'NONE', #15, #54, #40 ) ;
#26 = SECURITY_CLASSIFICATION ( '', '', #110 ) ;
#27 = EDGE_CURVE ( 'NONE', #150, #150, #91, .T. ) ;
#28 = CARTESIAN_POINT ( 'NONE',  ( 0.0000000000000000000, 0.0000000000000000000, 0.0000000000000000000 ) ) ;
#29 = ORIENTED_EDGE ( 'NONE', *, *, #104, .T. ) ;
#30 = ORIENTED_EDGE ( 'NONE', *, *, #168, .F. ) ;
#31 = CARTESIAN_POINT ( 'NONE',  ( 0.0000000000000000000, 0.0000000000000000000, 0.0000000000000000000 ) ) ;
#32 = DIRECTION ( 'NONE',  ( 5.925938290422263692E-31, 1.000000000000000000, 1.668003342285391304E-16 ) ) ;
#33 = DIRECTION ( 'NONE',  ( 1.000000000000000000, 0.0000000000000000000, 0.0000000000000000000 ) ) ;
#34 = MECHANICAL_CONTEXT ( 'NONE', #127, 'mechanical' ) ;
#35 =( LENGTH_UNIT ( ) NAMED_UNIT ( * ) SI_UNIT ( .MILLI., .METRE. ) );
#36 = COORDINATED_UNIVERSAL_TIME_OFFSET ( 1, 0, .AHEAD. ) ;
#37 = LOCAL_TIME ( 13, 59, 43.00000000000000000, #111 ) ;
#38 = CALENDAR_DATE ( 2021, 6, 12 ) ;
#39 = ORIENTED_EDGE ( 'NONE', *, *, #104, .F. ) ;
#40 = DIRECTION ( 'NONE',  ( 5.497497573296089637E-31, 1.000000000000000000, 1.574545884618025235E-16 ) ) ;
#41 = DATE_AND_TIME ( #160, #143 ) ;
#42 = DIRECTION ( 'NONE',  ( 5.497497573296089637E-31, 1.000000000000000000, 1.574545884618025482E-16 ) ) ;
#43 = CARTESIAN_POINT ( 'NONE',  ( 0.0000000000000000000, 0.0000000000000000000, 0.0000000000000000000 ) ) ;
#44 = PRODUCT_DEFINITION ( 'UNKNOWN', '', #108, #45 ) ;
#45 = DESIGN_CONTEXT ( 'detailed design', #130, 'design' ) ;
#46 = FACE_OUTER_BOUND ( 'NONE', #114, .T. ) ;
#47 = DATE_TIME_ROLE ( 'creation_date' ) ;
#48 = SHAPE_DEFINITION_REPRESENTATION ( #49, #165 ) ;
#49 = PRODUCT_DEFINITION_SHAPE ( 'NONE', 'NONE',  #44 ) ;
#50 = AXIS2_PLACEMENT_3D ( 'NONE', #43, #75, #33 ) ;
#51 = PERSON_AND_ORGANIZATION_ROLE ( 'design_supplier' ) ;
#52 = ADVANCED_FACE ( 'NONE', ( #55, #70 ), #145, .T. ) ;
#53 = ORIENTED_EDGE ( 'NONE', *, *, #79, .F. ) ;
#54 = DIRECTION ( 'NONE',  ( -3.491481338843133355E-15, 1.574545884618025482E-16, -1.000000000000000000 ) ) ;
#55 = FACE_BOUND ( 'NONE', #4, .T. ) ;
#56 = FACE_BOUND ( 'NONE', #134, .T. ) ;
#57 = CARTESIAN_POINT ( 'NONE',  ( -1.374374393324022427E-29, 6.197986856918901352E-31, -3.936364711545063630E-15 ) ) ;
#58 = ORGANIZATION ( 'UNSPECIFIED', 'UNSPECIFIED', '' ) ;
#59 = PERSON ( 'UNSPECIFIED', 'UNSPECIFIED', 'UNSPECIFIED', ('UNSPECIFIED'), ('UNSPECIFIED'), ('UNSPECIFIED') ) ;
#60 = VERTEX_POINT ( 'NONE', #83 ) ;
#61 = CARTESIAN_POINT ( 'NONE',  ( 4.888073874380386697E-15, 6.500000000000000888, 1.399999999999999911 ) ) ;
#62 = CALENDAR_DATE ( 2021, 6, 12 ) ;
#63 = AXIS2_PLACEMENT_3D ( 'NONE', #84, #99, #98 ) ;
#64 = APPROVAL_ROLE ( '' ) ;
#65 = APPROVAL_DATE_TIME ( #113, #153 ) ;
#66 = PRODUCT_RELATED_PRODUCT_CATEGORY ( 'detail', '', ( #103 ) ) ;
#67 = COORDINATED_UNIVERSAL_TIME_OFFSET ( 1, 0, .AHEAD. ) ;
#68 = CC_DESIGN_PERSON_AND_ORGANIZATION_ASSIGNMENT ( #148, #137, ( #103 ) ) ;
#69 = ORIENTED_EDGE ( 'NONE', *, *, #27, .F. ) ;
#70 = FACE_OUTER_BOUND ( 'NONE', #93, .T. ) ;
#71 = VERTEX_POINT ( 'NONE', #61 ) ;
#72 = CC_DESIGN_APPROVAL ( #12, ( #108 ) ) ;
#73 = UNCERTAINTY_MEASURE_WITH_UNIT (LENGTH_MEASURE( 1.000000000000000082E-05 ), #35, 'distance_accuracy_value', 'NONE');
#74 = APPLICATION_PROTOCOL_DEFINITION ( 'international standard', 'config_control_design', 1994, #130 ) ;
#75 = DIRECTION ( 'NONE',  ( 0.0000000000000000000, 0.0000000000000000000, 1.000000000000000000 ) ) ;
#76 = LOCAL_TIME ( 13, 59, 43.00000000000000000, #36 ) ;
#77 = PERSON_AND_ORGANIZATION ( #59, #58 ) ;
#78 = PERSON_AND_ORGANIZATION ( #59, #58 ) ;
#79 = EDGE_CURVE ( 'NONE', #60, #60, #154, .T. ) ;
#80 = AXIS2_PLACEMENT_3D ( 'NONE', #161, #157, #97 ) ;
#81 = APPROVAL ( #5, 'UNSPECIFIED' ) ;
#82 = CARTESIAN_POINT ( 'NONE',  ( 4.888073874380381175E-15, 6.500000000000000888, 1.399999999999998579 ) ) ;
#83 = CARTESIAN_POINT ( 'NONE',  ( 0.0000000000000000000, 25.00000000000000000, 0.0000000000000000000 ) ) ;
#84 = CARTESIAN_POINT ( 'NONE',  ( 4.888073874380373287E-15, -2.204364238465229659E-16, 1.399999999999996136 ) ) ;
#85 = APPROVAL_DATE_TIME ( #41, #81 ) ;
#86 = APPLICATION_PROTOCOL_DEFINITION ( 'international standard', 'config_control_design', 1994, #127 ) ;
#87 = DATE_AND_TIME ( #38, #88 ) ;
#88 = LOCAL_TIME ( 13, 59, 43.00000000000000000, #102 ) ;
#89 = CALENDAR_DATE ( 2021, 6, 12 ) ;
#90 = CIRCLE ( 'NONE', #162, 6.500000000000000888 ) ;
#91 = CIRCLE ( 'NONE', #25, 6.500000000000000000 ) ;
#92 = CC_DESIGN_DATE_AND_TIME_ASSIGNMENT ( #125, #164, ( #26 ) ) ;
#93 = EDGE_LOOP ( 'NONE', ( #30 ) ) ;
#94 = DIRECTION ( 'NONE',  ( 5.497497573296089637E-31, 1.000000000000000000, 1.574545884618025482E-16 ) ) ;
#95 = CC_DESIGN_APPROVAL ( #153, ( #26 ) ) ;
#96 = CARTESIAN_POINT ( 'NONE',  ( 4.888073874380382753E-15, -2.204364238465234097E-16, 1.399999999999998801 ) ) ;
#97 = DIRECTION ( 'NONE',  ( 5.497497573296089637E-31, 1.000000000000000000, 1.574545884618025482E-16 ) ) ;
#98 = DIRECTION ( 'NONE',  ( 5.546678239835239257E-31, 1.000000000000000000, 1.561251128379126385E-16 ) ) ;
#99 = DIRECTION ( 'NONE',  ( -3.491481338843133355E-15, 1.574545884618025482E-16, -1.000000000000000000 ) ) ;
#100 = CLOSED_SHELL ( 'NONE', ( #155, #2, #52, #115 ) ) ;
#101 = CC_DESIGN_DATE_AND_TIME_ASSIGNMENT ( #87, #47, ( #44 ) ) ;
#102 = COORDINATED_UNIVERSAL_TIME_OFFSET ( 1, 0, .AHEAD. ) ;
#103 = PRODUCT ( '43114', '43114', '', ( #34 ) ) ;
#104 = EDGE_CURVE ( 'NONE', #71, #71, #90, .T. ) ;
#105 = ORIENTED_EDGE ( 'NONE', *, *, #168, .T. ) ;
#106 = COORDINATED_UNIVERSAL_TIME_OFFSET ( 1, 0, .AHEAD. ) ;
#107 = DIRECTION ( 'NONE',  ( 3.491481338843133355E-15, -1.574545884618025482E-16, 1.000000000000000000 ) ) ;
#108 = PRODUCT_DEFINITION_FORMATION_WITH_SPECIFIED_SOURCE ( 'ANY', '', #103, .NOT_KNOWN. ) ;
#109 = CYLINDRICAL_SURFACE ( 'NONE', #132, 6.500000000000000888 ) ;
#110 = SECURITY_CLASSIFICATION_LEVEL ( 'unclassified' ) ;
#111 = COORDINATED_UNIVERSAL_TIME_OFFSET ( 1, 0, .AHEAD. ) ;
#112 = AXIS2_PLACEMENT_3D ( 'NONE', #57, #159, #42 ) ;
#113 = DATE_AND_TIME ( #62, #37 ) ;
#114 = EDGE_LOOP ( 'NONE', ( #39 ) ) ;
#115 = ADVANCED_FACE ( 'NONE', ( #158, #46 ), #109, .F. ) ;
#116 = DIRECTION ( 'NONE',  ( -3.491481338843133355E-15, 1.574545884618025482E-16, -1.000000000000000000 ) ) ;
#117 = AXIS2_PLACEMENT_3D ( 'NONE', #28, #116, #94 ) ;
#118 = EDGE_LOOP ( 'NONE', ( #53 ) ) ;
#119 = DIRECTION ( 'NONE',  ( -5.497497573296089637E-31, -1.000000000000000000, -1.574545884618025482E-16 ) ) ;
#120 = CARTESIAN_POINT ( 'NONE',  ( 6.842277657836020854E-46, 6.500000000000000000, 0.0000000000000000000 ) ) ;
#121 = EDGE_LOOP ( 'NONE', ( #105 ) ) ;
#122 = PERSON_AND_ORGANIZATION ( #59, #58 ) ;
#123 = CC_DESIGN_PERSON_AND_ORGANIZATION_ASSIGNMENT ( #21, #9, ( #44 ) ) ;
#124 = FACE_OUTER_BOUND ( 'NONE', #13, .T. ) ;
#125 = DATE_AND_TIME ( #20, #167 ) ;
#126 = APPROVAL_STATUS ( 'not_yet_approved' ) ;
#127 = APPLICATION_CONTEXT ( 'configuration controlled 3d designs of mechanical parts and assemblies' ) ;
#128 = CC_DESIGN_PERSON_AND_ORGANIZATION_ASSIGNMENT ( #78, #51, ( #108 ) ) ;
#129 =( GEOMETRIC_REPRESENTATION_CONTEXT ( 3 ) GLOBAL_UNCERTAINTY_ASSIGNED_CONTEXT ( ( #73 ) ) GLOBAL_UNIT_ASSIGNED_CONTEXT ( ( #35, #19, #16 ) ) REPRESENTATION_CONTEXT ( 'NONE', 'WORKASPACE' ) );
#130 = APPLICATION_CONTEXT ( 'configuration controlled 3d designs of mechanical parts and assemblies' ) ;
#131 = ORIENTED_EDGE ( 'NONE', *, *, #27, .T. ) ;
#132 = AXIS2_PLACEMENT_3D ( 'NONE', #31, #135, #149 ) ;
#133 = VERTEX_POINT ( 'NONE', #14 ) ;
#134 = EDGE_LOOP ( 'NONE', ( #69 ) ) ;
#135 = DIRECTION ( 'NONE',  ( -3.491481338843133355E-15, 1.574545884618025482E-16, -1.000000000000000000 ) ) ;
#136 = ORIENTED_EDGE ( 'NONE', *, *, #79, .T. ) ;
#137 = PERSON_AND_ORGANIZATION_ROLE ( 'design_owner' ) ;
#138 = CC_DESIGN_PERSON_AND_ORGANIZATION_ASSIGNMENT ( #77, #22, ( #108 ) ) ;
#139 = PLANE ( 'NONE',  #80 ) ;
#140 = APPROVAL_DATE_TIME ( #23, #12 ) ;
#141 = APPROVAL_PERSON_ORGANIZATION ( #142, #12, #8 ) ;
#142 = PERSON_AND_ORGANIZATION ( #59, #58 ) ;
#143 = LOCAL_TIME ( 13, 59, 43.00000000000000000, #106 ) ;
#144 = FACE_OUTER_BOUND ( 'NONE', #118, .T. ) ;
#145 = PLANE ( 'NONE',  #17 ) ;
#146 = CYLINDRICAL_SURFACE ( 'NONE', #117, 25.00000000000000000 ) ;
#147 = DIRECTION ( 'NONE',  ( -3.491481338843133355E-15, 1.574545884618025482E-16, -1.000000000000000000 ) ) ;
#148 = PERSON_AND_ORGANIZATION ( #59, #58 ) ;
#149 = DIRECTION ( 'NONE',  ( 5.497497573296089637E-31, 1.000000000000000000, 1.574545884618025235E-16 ) ) ;
#150 = VERTEX_POINT ( 'NONE', #120 ) ;
#151 = PERSON_AND_ORGANIZATION_ROLE ( 'classification_officer' ) ;
#152 = APPROVAL_PERSON_ORGANIZATION ( #122, #81, #7 ) ;
#153 = APPROVAL ( #126, 'UNSPECIFIED' ) ;
#154 = CIRCLE ( 'NONE', #112, 25.00000000000000000 ) ;
#155 = ADVANCED_FACE ( 'NONE', ( #124, #56 ), #139, .T. ) ;
#156 = EDGE_LOOP ( 'NONE', ( #131 ) ) ;
#157 = DIRECTION ( 'NONE',  ( -3.491481338843133355E-15, 1.574545884618025482E-16, -1.000000000000000000 ) ) ;
#158 = FACE_OUTER_BOUND ( 'NONE', #156, .T. ) ;
#159 = DIRECTION ( 'NONE',  ( -3.491481338843133355E-15, 1.574545884618025482E-16, -1.000000000000000000 ) ) ;
#160 = CALENDAR_DATE ( 2021, 6, 12 ) ;
#161 = CARTESIAN_POINT ( 'NONE',  ( -5.085185255298882783E-30, 6.500000000000000000, -1.456454943271673725E-15 ) ) ;
#162 = AXIS2_PLACEMENT_3D ( 'NONE', #96, #147, #32 ) ;
#163 = APPROVAL_STATUS ( 'not_yet_approved' ) ;
#164 = DATE_TIME_ROLE ( 'classification_date' ) ;
#165 = ADVANCED_BREP_SHAPE_REPRESENTATION ( '43114', ( #24, #50 ), #129 ) ;
#166 = PERSON_AND_ORGANIZATION ( #59, #58 ) ;
#167 = LOCAL_TIME ( 13, 59, 43.00000000000000000, #67 ) ;
#168 = EDGE_CURVE ( 'NONE', #133, #133, #3, .T. ) ;
#169 = APPROVAL_PERSON_ORGANIZATION ( #166, #153, #64 ) ;
ENDSEC;
END-ISO-10303-21;
