ISO-10303-21;
HEADER;
FILE_DESCRIPTION (( 'STEP AP203' ),
    '1' );
FILE_NAME ('43064.step',
    '2021-09-21T07:37:56',
    ( '' ),
    ( '' ),
    'SwSTEP 2.0',
    'SolidWorks 2019',
    '' );
FILE_SCHEMA (( 'CONFIG_CONTROL_DESIGN' ));
ENDSEC;

DATA;
#1 = ORIENTED_EDGE ( 'NONE', *, *, #41, .F. ) ;
#2 = DATE_AND_TIME ( #245, #261 ) ;
#3 = COORDINATED_UNIVERSAL_TIME_OFFSET ( 1, 0, .AHEAD. ) ;
#4 = CARTESIAN_POINT ( 'NONE',  ( 2.856031735173683463E-13, -1.001761081702535121E-14, 81.80000000000001137 ) ) ;
#5 = CALENDAR_DATE ( 2021, 21, 9 ) ;
#6 = CIRCLE ( 'NONE', #207, 5.999999999999990230 ) ;
#7 = ADVANCED_FACE ( 'NONE', ( #54 ), #199, .F. ) ;
#8 = LOCAL_TIME ( 9, 37, 56.00000000000000000, #3 ) ;
#9 = CARTESIAN_POINT ( 'NONE',  ( 2.897929511239800811E-13, -1.016456843292303150E-14, 83.00000000000000000 ) ) ;
#10 = DESIGN_CONTEXT ( 'detailed design', #210, 'design' ) ;
#11 = PERSON_AND_ORGANIZATION ( #34, #156 ) ;
#12 = CYLINDRICAL_SURFACE ( 'NONE', #179, 5.999999999999996447 ) ;
#13 = DIRECTION ( 'NONE',  ( 4.275831445896958607E-31, 1.000000000000000000, 1.224646799147353454E-16 ) ) ;
#14 = EDGE_CURVE ( 'NONE', #49, #65, #84, .T. ) ;
#15 = CARTESIAN_POINT ( 'NONE',  ( 7.347880794884090154E-16, -5.999999999999996447, -7.347880794884140444E-16 ) ) ;
#16 = CONICAL_SURFACE ( 'NONE', #144, 5.999999999999990230, 0.7853981633974427279 ) ;
#17 = CARTESIAN_POINT ( 'NONE',  ( 2.094888803305899892E-14, -5.999999999999991118, 6.000000000000056843 ) ) ;
#18 = CARTESIAN_POINT ( 'NONE',  ( 2.897929511239800811E-13, -1.016456843292303150E-14, 83.00000000000000000 ) ) ;
#19 = ADVANCED_FACE ( 'NONE', ( #250 ), #16, .T. ) ;
#20 = DIRECTION ( 'NONE',  ( 1.000000000000000000, 0.0000000000000000000, 0.0000000000000000000 ) ) ;
#21 = EDGE_LOOP ( 'NONE', ( #195, #221 ) ) ;
#22 = AXIS2_PLACEMENT_3D ( 'NONE', #158, #80, #20 ) ;
#23 = ORIENTED_EDGE ( 'NONE', *, *, #125, .F. ) ;
#24 = APPLICATION_PROTOCOL_DEFINITION ( 'international standard', 'config_control_design', 1994, #210 ) ;
#25 = PRODUCT_RELATED_PRODUCT_CATEGORY ( 'detail', '', ( #132 ) ) ;
#26 = APPROVAL_STATUS ( 'not_yet_approved' ) ;
#27 = CIRCLE ( 'NONE', #50, 6.000000000000002665 ) ;
#28 = ORIENTED_EDGE ( 'NONE', *, *, #67, .F. ) ;
#29 = APPROVAL_ROLE ( '' ) ;
#30 = CARTESIAN_POINT ( 'NONE',  ( 2.094888803305900208E-14, -7.347880794884189747E-16, 6.000000000000057732 ) ) ;
#31 = PERSON_AND_ORGANIZATION ( #34, #156 ) ;
#32 = DATE_AND_TIME ( #5, #90 ) ;
#33 = DIRECTION ( 'NONE',  ( -3.491481338843133355E-15, 1.224646799147353207E-16, -1.000000000000000000 ) ) ;
#34 = PERSON ( 'UNSPECIFIED', 'UNSPECIFIED', 'UNSPECIFIED', ('UNSPECIFIED'), ('UNSPECIFIED'), ('UNSPECIFIED') ) ;
#35 = DIRECTION ( 'NONE',  ( -3.491481338843133355E-15, 1.224646799147353207E-16, -1.000000000000000000 ) ) ;
#36 = FACE_OUTER_BOUND ( 'NONE', #63, .T. ) ;
#37 = EDGE_CURVE ( 'NONE', #190, #43, #168, .T. ) ;
#38 = DIRECTION ( 'NONE',  ( -3.491481338843133355E-15, 1.224646799147353207E-16, -1.000000000000000000 ) ) ;
#39 = AXIS2_PLACEMENT_3D ( 'NONE', #205, #178, #226 ) ;
#40 = DIRECTION ( 'NONE',  ( 2.555445736705828601E-15, 0.7071067811865435759, 0.7071067811865515695 ) ) ;
#41 = EDGE_CURVE ( 'NONE', #49, #175, #160, .T. ) ;
#42 = PERSON_AND_ORGANIZATION_ROLE ( 'creator' ) ;
#43 = VERTEX_POINT ( 'NONE', #93 ) ;
#44 = ORIENTED_EDGE ( 'NONE', *, *, #60, .F. ) ;
#45 = SECURITY_CLASSIFICATION ( '', '', #202 ) ;
#46 = MECHANICAL_CONTEXT ( 'NONE', #215, 'mechanical' ) ;
#47 = EDGE_LOOP ( 'NONE', ( #119, #240, #264 ) ) ;
#48 = ORIENTED_EDGE ( 'NONE', *, *, #275, .F. ) ;
#49 = VERTEX_POINT ( 'NONE', #230 ) ;
#50 = AXIS2_PLACEMENT_3D ( 'NONE', #4, #94, #182 ) ;
#51 = FACE_OUTER_BOUND ( 'NONE', #122, .T. ) ;
#52 = APPROVAL ( #198, 'UNSPECIFIED' ) ;
#53 = DATE_AND_TIME ( #248, #194 ) ;
#54 = FACE_OUTER_BOUND ( 'NONE', #21, .T. ) ;
#55 = DATE_TIME_ROLE ( 'creation_date' ) ;
#56 = CARTESIAN_POINT ( 'NONE',  ( 1.540108188547018453E-13, -6.000000000000012434, 81.80000000000001137 ) ) ;
#57 = CARTESIAN_POINT ( 'NONE',  ( 0.0000000000000000000, 0.0000000000000000000, 0.0000000000000000000 ) ) ;
#58 = DIRECTION ( 'NONE',  ( 5.135813185032637408E-31, 1.000000000000000000, 1.445602896647341628E-16 ) ) ;
#59 = AXIS2_PLACEMENT_3D ( 'NONE', #282, #100, #143 ) ;
#60 = EDGE_CURVE ( 'NONE', #65, #49, #27, .T. ) ;
#61 = CARTESIAN_POINT ( 'NONE',  ( 0.0000000000000000000, 0.0000000000000000000, 0.0000000000000000000 ) ) ;
#62 = DIRECTION ( 'NONE',  ( 2.468850131082278754E-15, -0.7071067811865436870, 0.7071067811865513475 ) ) ;
#63 = EDGE_LOOP ( 'NONE', ( #170, #216 ) ) ;
#64 = ADVANCED_FACE ( 'NONE', ( #51 ), #283, .T. ) ;
#65 = VERTEX_POINT ( 'NONE', #56 ) ;
#66 = ORIENTED_EDGE ( 'NONE', *, *, #41, .T. ) ;
#67 = EDGE_CURVE ( 'NONE', #172, #219, #267, .T. ) ;
#68 = CARTESIAN_POINT ( 'NONE',  ( 2.094888803305900208E-14, -7.347880794884189747E-16, 6.000000000000057732 ) ) ;
#69 = DIRECTION ( 'NONE',  ( -3.491481338843133355E-15, 1.224646799147353207E-16, -1.000000000000000000 ) ) ;
#70 = PERSON_AND_ORGANIZATION_ROLE ( 'classification_officer' ) ;
#71 = DIRECTION ( 'NONE',  ( -4.275831445896958607E-31, -1.000000000000000000, -1.224646799147353207E-16 ) ) ;
#72 = APPROVAL ( #26, 'UNSPECIFIED' ) ;
#73 = AXIS2_PLACEMENT_3D ( 'NONE', #18, #78, #255 ) ;
#74 = DIRECTION ( 'NONE',  ( 3.491481338843133355E-15, -1.224646799147353207E-16, 1.000000000000000000 ) ) ;
#75 = ADVANCED_FACE ( 'NONE', ( #183 ), #12, .T. ) ;
#76 = PLANE ( 'NONE',  #217 ) ;
#77 = PRODUCT_DEFINITION_SHAPE ( 'NONE', 'NONE',  #196 ) ;
#78 = DIRECTION ( 'NONE',  ( -3.491481338843133355E-15, 1.224646799147353207E-16, -1.000000000000000000 ) ) ;
#79 = DIRECTION ( 'NONE',  ( -3.491481338843133355E-15, 1.224646799147353207E-16, -1.000000000000000000 ) ) ;
#80 = DIRECTION ( 'NONE',  ( 0.0000000000000000000, 0.0000000000000000000, 1.000000000000000000 ) ) ;
#81 = CIRCLE ( 'NONE', #260, 5.999999999999990230 ) ;
#82 = EDGE_LOOP ( 'NONE', ( #23, #258, #66, #48 ) ) ;
#83 = CC_DESIGN_DATE_AND_TIME_ASSIGNMENT ( #2, #242, ( #45 ) ) ;
#84 = CIRCLE ( 'NONE', #249, 6.000000000000002665 ) ;
#85 = DATE_AND_TIME ( #173, #246 ) ;
#86 = ORIENTED_EDGE ( 'NONE', *, *, #243, .F. ) ;
#87 = ADVANCED_FACE ( 'NONE', ( #36 ), #270, .T. ) ;
#88 = ORIENTED_EDGE ( 'NONE', *, *, #37, .T. ) ;
#89 = PERSON_AND_ORGANIZATION ( #34, #156 ) ;
#90 = LOCAL_TIME ( 9, 37, 56.00000000000000000, #134 ) ;
#91 = DIRECTION ( 'NONE',  ( 3.491481338843133355E-15, -1.224646799147353207E-16, 1.000000000000000000 ) ) ;
#92 = COORDINATED_UNIVERSAL_TIME_OFFSET ( 1, 0, .AHEAD. ) ;
#93 = CARTESIAN_POINT ( 'NONE',  ( 2.168367611254741297E-14, 5.999999999999989342, 6.000000000000058620 ) ) ;
#94 = DIRECTION ( 'NONE',  ( -3.491481338843133355E-15, 1.224646799147353207E-16, -1.000000000000000000 ) ) ;
#95 = VECTOR ( 'NONE', #40, 999.9999999999998863 ) ;
#96 = CARTESIAN_POINT ( 'NONE',  ( 1.540108188547019967E-13, -5.999999999999991118, 6.000000000000056843 ) ) ;
#97 = CC_DESIGN_DATE_AND_TIME_ASSIGNMENT ( #53, #55, ( #196 ) ) ;
#98 = LINE ( 'NONE', #236, #187 ) ;
#99 = FACE_OUTER_BOUND ( 'NONE', #102, .T. ) ;
#100 = DIRECTION ( 'NONE',  ( -3.491481338843133355E-15, 1.224646799147353207E-16, -1.000000000000000000 ) ) ;
#101 =( LENGTH_UNIT ( ) NAMED_UNIT ( * ) SI_UNIT ( .MILLI., .METRE. ) );
#102 = EDGE_LOOP ( 'NONE', ( #28, #86 ) ) ;
#103 = EDGE_CURVE ( 'NONE', #219, #65, #135, .T. ) ;
#104 = EDGE_LOOP ( 'NONE', ( #239, #285, #284, #126 ) ) ;
#105 = CLOSED_SHELL ( 'NONE', ( #263, #75, #7, #252, #64, #233 ) ) ;
#106 = ADVANCED_FACE ( 'NONE', ( #225 ), #222, .T. ) ;
#107 = ORIENTED_EDGE ( 'NONE', *, *, #204, .F. ) ;
#108 = DIRECTION ( 'NONE',  ( -3.491481338843133355E-15, 1.224646799147353207E-16, -1.000000000000000000 ) ) ;
#109 = PERSON_AND_ORGANIZATION ( #34, #156 ) ;
#110 = DIRECTION ( 'NONE',  ( -3.491481338843133355E-15, 1.224646799147353207E-16, -1.000000000000000000 ) ) ;
#111 = AXIS2_PLACEMENT_3D ( 'NONE', #228, #74, #268 ) ;
#112 = CARTESIAN_POINT ( 'NONE',  ( 2.094888803305902101E-14, 5.760986815450474334E-31, 6.000000000000062172 ) ) ;
#113 = DIRECTION ( 'NONE',  ( -4.275831445896958607E-31, -1.000000000000000000, -1.224646799147353207E-16 ) ) ;
#114 = DIRECTION ( 'NONE',  ( -5.135813185032637408E-31, -1.000000000000000000, -1.445602896647341628E-16 ) ) ;
#115 = CARTESIAN_POINT ( 'NONE',  ( 0.0000000000000000000, 0.0000000000000000000, 0.0000000000000000000 ) ) ;
#116 = VECTOR ( 'NONE', #110, 1000.000000000000000 ) ;
#117 = FACE_OUTER_BOUND ( 'NONE', #104, .T. ) ;
#118 = PERSON_AND_ORGANIZATION ( #34, #156 ) ;
#119 = ORIENTED_EDGE ( 'NONE', *, *, #271, .F. ) ;
#120 = CC_DESIGN_PERSON_AND_ORGANIZATION_ASSIGNMENT ( #11, #70, ( #45 ) ) ;
#121 = CIRCLE ( 'NONE', #200, 4.800000000000003375 ) ;
#122 = EDGE_LOOP ( 'NONE', ( #244, #265, #153, #44 ) ) ;
#123 = CIRCLE ( 'NONE', #59, 5.999999999999990230 ) ;
#124 = PERSON_AND_ORGANIZATION_ROLE ( 'design_owner' ) ;
#125 = EDGE_CURVE ( 'NONE', #65, #127, #197, .T. ) ;
#126 = ORIENTED_EDGE ( 'NONE', *, *, #224, .F. ) ;
#127 = VERTEX_POINT ( 'NONE', #96 ) ;
#128 = VECTOR ( 'NONE', #33, 1000.000000000000000 ) ;
#129 = APPROVAL_DATE_TIME ( #85, #72 ) ;
#130 = APPROVAL_PERSON_ORGANIZATION ( #109, #52, #257 ) ;
#131 = DATE_AND_TIME ( #191, #8 ) ;
#132 = PRODUCT ( '43064', '43064', '', ( #46 ) ) ;
#133 = DIRECTION ( 'NONE',  ( 3.491481338843133355E-15, -1.224646799147353207E-16, 1.000000000000000000 ) ) ;
#134 = COORDINATED_UNIVERSAL_TIME_OFFSET ( 1, 0, .AHEAD. ) ;
#135 = LINE ( 'NONE', #247, #155 ) ;
#136 = CC_DESIGN_SECURITY_CLASSIFICATION ( #45, ( #218 ) ) ;
#137 = MANIFOLD_SOLID_BREP ( 'Corps-Déplacer/Copier1[2]', #212 ) ;
#138 = DIRECTION ( 'NONE',  ( 0.0000000000000000000, 1.000000000000000000, 0.0000000000000000000 ) ) ;
#139 =( NAMED_UNIT ( * ) SI_UNIT ( $, .STERADIAN. ) SOLID_ANGLE_UNIT ( ) );
#140 = VECTOR ( 'NONE', #256, 1000.000000000000000 ) ;
#141 = CARTESIAN_POINT ( 'NONE',  ( 2.897929511239800811E-13, 3.599423478388445122E-32, 83.00000000000000000 ) ) ;
#142 = LINE ( 'NONE', #251, #140 ) ;
#143 = DIRECTION ( 'NONE',  ( 5.135813185032637408E-31, 1.000000000000000000, 1.445602896647341628E-16 ) ) ;
#144 = AXIS2_PLACEMENT_3D ( 'NONE', #68, #133, #114 ) ;
#145 = LINE ( 'NONE', #237, #95 ) ;
#146 = CC_DESIGN_APPROVAL ( #149, ( #196 ) ) ;
#147 = MANIFOLD_SOLID_BREP ( 'Corps-Déplacer/Copier1[1]', #105 ) ;
#148 = APPROVAL_DATE_TIME ( #32, #52 ) ;
#149 = APPROVAL ( #214, 'UNSPECIFIED' ) ;
#150 = APPLICATION_PROTOCOL_DEFINITION ( 'international standard', 'config_control_design', 1994, #215 ) ;
#151 = AXIS2_PLACEMENT_3D ( 'NONE', #115, #253, #211 ) ;
#152 = EDGE_LOOP ( 'NONE', ( #241, #171, #88 ) ) ;
#153 = ORIENTED_EDGE ( 'NONE', *, *, #224, .T. ) ;
#154 = DIRECTION ( 'NONE',  ( 0.0000000000000000000, 1.000000000000000000, 0.0000000000000000000 ) ) ;
#155 = VECTOR ( 'NONE', #206, 1000.000000000000114 ) ;
#156 = ORGANIZATION ( 'UNSPECIFIED', 'UNSPECIFIED', '' ) ;
#157 = CARTESIAN_POINT ( 'NONE',  ( 2.094888803305902101E-14, 5.760986815450474334E-31, 6.000000000000062172 ) ) ;
#158 = CARTESIAN_POINT ( 'NONE',  ( 0.0000000000000000000, 0.0000000000000000000, 0.0000000000000000000 ) ) ;
#159 = DIRECTION ( 'NONE',  ( 0.0000000000000000000, 1.000000000000000000, 0.0000000000000000000 ) ) ;
#160 = LINE ( 'NONE', #231, #116 ) ;
#161 = AXIS2_PLACEMENT_3D ( 'NONE', #157, #274, #71 ) ;
#162 = CARTESIAN_POINT ( 'NONE',  ( 2.856031735173683463E-13, -1.001761081702535121E-14, 81.80000000000001137 ) ) ;
#163 = CARTESIAN_POINT ( 'NONE',  ( 2.897929511239800811E-13, -1.016456843292303150E-14, 83.00000000000000000 ) ) ;
#164 = CC_DESIGN_PERSON_AND_ORGANIZATION_ASSIGNMENT ( #89, #227, ( #196 ) ) ;
#165 = DIRECTION ( 'NONE',  ( -3.491481338843133355E-15, 1.224646799147353207E-16, -1.000000000000000000 ) ) ;
#166 = DIRECTION ( 'NONE',  ( 0.0000000000000000000, 1.000000000000000000, 0.0000000000000000000 ) ) ;
#167 = ADVANCED_BREP_SHAPE_REPRESENTATION ( '43064', ( #147, #137, #22 ), #184 ) ;
#168 = CIRCLE ( 'NONE', #39, 5.999999999999990230 ) ;
#169 = PERSON_AND_ORGANIZATION ( #34, #156 ) ;
#170 = ORIENTED_EDGE ( 'NONE', *, *, #37, .F. ) ;
#171 = ORIENTED_EDGE ( 'NONE', *, *, #271, .T. ) ;
#172 = VERTEX_POINT ( 'NONE', #185 ) ;
#173 = CALENDAR_DATE ( 2021, 21, 9 ) ;
#174 = SHAPE_DEFINITION_REPRESENTATION ( #77, #167 ) ;
#175 = VERTEX_POINT ( 'NONE', #276 ) ;
#176 = APPROVAL_DATE_TIME ( #131, #149 ) ;
#177 = CC_DESIGN_PERSON_AND_ORGANIZATION_ASSIGNMENT ( #238, #42, ( #218 ) ) ;
#178 = DIRECTION ( 'NONE',  ( -3.491481338843133355E-15, 1.224646799147353207E-16, -1.000000000000000000 ) ) ;
#179 = AXIS2_PLACEMENT_3D ( 'NONE', #57, #273, #13 ) ;
#180 = APPROVAL_PERSON_ORGANIZATION ( #169, #149, #193 ) ;
#181 = DIRECTION ( 'NONE',  ( -3.491481338843133355E-15, 1.224646799147353207E-16, -1.000000000000000000 ) ) ;
#182 = DIRECTION ( 'NONE',  ( 0.0000000000000000000, 1.000000000000000000, 0.0000000000000000000 ) ) ;
#183 = FACE_OUTER_BOUND ( 'NONE', #223, .T. ) ;
#184 =( GEOMETRIC_REPRESENTATION_CONTEXT ( 3 ) GLOBAL_UNCERTAINTY_ASSIGNED_CONTEXT ( ( #281 ) ) GLOBAL_UNIT_ASSIGNED_CONTEXT ( ( #101, #209, #139 ) ) REPRESENTATION_CONTEXT ( 'NONE', 'WORKASPACE' ) );
#185 = CARTESIAN_POINT ( 'NONE',  ( 2.897929511239800811E-13, 4.799999999999992717, 83.00000000000000000 ) ) ;
#186 = EDGE_CURVE ( 'NONE', #43, #190, #6, .T. ) ;
#187 = VECTOR ( 'NONE', #62, 1000.000000000000000 ) ;
#188 = CONICAL_SURFACE ( 'NONE', #73, 4.800000000000003375, 0.7853981633974511656 ) ;
#189 = CC_DESIGN_PERSON_AND_ORGANIZATION_ASSIGNMENT ( #31, #124, ( #132 ) ) ;
#190 = VERTEX_POINT ( 'NONE', #17 ) ;
#191 = CALENDAR_DATE ( 2021, 21, 9 ) ;
#192 = VERTEX_POINT ( 'NONE', #61 ) ;
#193 = APPROVAL_ROLE ( '' ) ;
#194 = LOCAL_TIME ( 9, 37, 56.00000000000000000, #269 ) ;
#195 = ORIENTED_EDGE ( 'NONE', *, *, #204, .T. ) ;
#196 = PRODUCT_DEFINITION ( 'UNKNOWN', '', #218, #10 ) ;
#197 = LINE ( 'NONE', #15, #128 ) ;
#198 = APPROVAL_STATUS ( 'not_yet_approved' ) ;
#199 = PLANE ( 'NONE',  #232 ) ;
#200 = AXIS2_PLACEMENT_3D ( 'NONE', #163, #79, #166 ) ;
#201 = CC_DESIGN_APPROVAL ( #72, ( #45 ) ) ;
#202 = SECURITY_CLASSIFICATION_LEVEL ( 'unclassified' ) ;
#203 = CARTESIAN_POINT ( 'NONE',  ( 2.897929511239800811E-13, -1.016456843292303150E-14, 83.00000000000000000 ) ) ;
#204 = EDGE_CURVE ( 'NONE', #175, #127, #81, .T. ) ;
#205 = CARTESIAN_POINT ( 'NONE',  ( 2.094888803305900208E-14, -7.347880794884189747E-16, 6.000000000000057732 ) ) ;
#206 = DIRECTION ( 'NONE',  ( -2.382254525458708792E-15, -0.7071067811865493491, -0.7071067811865455743 ) ) ;
#207 = AXIS2_PLACEMENT_3D ( 'NONE', #30, #108, #278 ) ;
#208 = CC_DESIGN_PERSON_AND_ORGANIZATION_ASSIGNMENT ( #118, #272, ( #218 ) ) ;
#209 =( NAMED_UNIT ( * ) PLANE_ANGLE_UNIT ( ) SI_UNIT ( $, .RADIAN. ) );
#210 = APPLICATION_CONTEXT ( 'configuration controlled 3d designs of mechanical parts and assemblies' ) ;
#211 = DIRECTION ( 'NONE',  ( 4.275831445896958607E-31, 1.000000000000000000, 1.224646799147353454E-16 ) ) ;
#212 = CLOSED_SHELL ( 'NONE', ( #106, #19, #87 ) ) ;
#213 = CARTESIAN_POINT ( 'NONE',  ( 2.094888803305900208E-14, -7.347880794884189747E-16, 6.000000000000057732 ) ) ;
#214 = APPROVAL_STATUS ( 'not_yet_approved' ) ;
#215 = APPLICATION_CONTEXT ( 'configuration controlled 3d designs of mechanical parts and assemblies' ) ;
#216 = ORIENTED_EDGE ( 'NONE', *, *, #186, .F. ) ;
#217 = AXIS2_PLACEMENT_3D ( 'NONE', #141, #165, #234 ) ;
#218 = PRODUCT_DEFINITION_FORMATION_WITH_SPECIFIED_SOURCE ( 'ANY', '', #132, .NOT_KNOWN. ) ;
#219 = VERTEX_POINT ( 'NONE', #277 ) ;
#220 = PERSON_AND_ORGANIZATION ( #34, #156 ) ;
#221 = ORIENTED_EDGE ( 'NONE', *, *, #275, .T. ) ;
#222 = CONICAL_SURFACE ( 'NONE', #111, 5.999999999999990230, 0.7853981633974427279 ) ;
#223 = EDGE_LOOP ( 'NONE', ( #259, #262, #107, #1 ) ) ;
#224 = EDGE_CURVE ( 'NONE', #172, #49, #142, .T. ) ;
#225 = FACE_OUTER_BOUND ( 'NONE', #47, .T. ) ;
#226 = DIRECTION ( 'NONE',  ( 5.135813185032637408E-31, 1.000000000000000000, 1.445602896647341628E-16 ) ) ;
#227 = PERSON_AND_ORGANIZATION_ROLE ( 'creator' ) ;
#228 = CARTESIAN_POINT ( 'NONE',  ( 2.094888803305900208E-14, -7.347880794884189747E-16, 6.000000000000057732 ) ) ;
#229 = AXIS2_PLACEMENT_3D ( 'NONE', #9, #35, #154 ) ;
#230 = CARTESIAN_POINT ( 'NONE',  ( 2.856031735173683463E-13, 5.999999999999992006, 81.80000000000001137 ) ) ;
#231 = CARTESIAN_POINT ( 'NONE',  ( 2.565498867538173763E-30, 5.999999999999996447, 7.347880794884115792E-16 ) ) ;
#232 = AXIS2_PLACEMENT_3D ( 'NONE', #112, #91, #113 ) ;
#233 = ADVANCED_FACE ( 'NONE', ( #99 ), #76, .F. ) ;
#234 = DIRECTION ( 'NONE',  ( 4.275831445896958607E-31, 1.000000000000000000, 1.224646799147353207E-16 ) ) ;
#235 = FACE_OUTER_BOUND ( 'NONE', #82, .T. ) ;
#236 = CARTESIAN_POINT ( 'NONE',  ( 2.094888803305899892E-14, -5.999999999999991118, 6.000000000000056843 ) ) ;
#237 = CARTESIAN_POINT ( 'NONE',  ( 2.168367611254741297E-14, 5.999999999999989342, 6.000000000000058620 ) ) ;
#238 = PERSON_AND_ORGANIZATION ( #34, #156 ) ;
#239 = ORIENTED_EDGE ( 'NONE', *, *, #67, .T. ) ;
#240 = ORIENTED_EDGE ( 'NONE', *, *, #286, .T. ) ;
#241 = ORIENTED_EDGE ( 'NONE', *, *, #286, .F. ) ;
#242 = DATE_TIME_ROLE ( 'classification_date' ) ;
#243 = EDGE_CURVE ( 'NONE', #219, #172, #121, .T. ) ;
#244 = ORIENTED_EDGE ( 'NONE', *, *, #103, .F. ) ;
#245 = CALENDAR_DATE ( 2021, 21, 9 ) ;
#246 = LOCAL_TIME ( 9, 37, 56.00000000000000000, #266 ) ;
#247 = CARTESIAN_POINT ( 'NONE',  ( 2.903807815875708401E-13, -4.800000000000013145, 83.00000000000000000 ) ) ;
#248 = CALENDAR_DATE ( 2021, 21, 9 ) ;
#249 = AXIS2_PLACEMENT_3D ( 'NONE', #162, #69, #159 ) ;
#250 = FACE_OUTER_BOUND ( 'NONE', #152, .T. ) ;
#251 = CARTESIAN_POINT ( 'NONE',  ( 2.897929511239800811E-13, 4.799999999999992717, 83.00000000000000000 ) ) ;
#252 = ADVANCED_FACE ( 'NONE', ( #235 ), #280, .T. ) ;
#253 = DIRECTION ( 'NONE',  ( -3.491481338843133355E-15, 1.224646799147353207E-16, -1.000000000000000000 ) ) ;
#254 = APPROVAL_PERSON_ORGANIZATION ( #220, #72, #29 ) ;
#255 = DIRECTION ( 'NONE',  ( 0.0000000000000000000, 1.000000000000000000, 0.0000000000000000000 ) ) ;
#256 = DIRECTION ( 'NONE',  ( -2.468850131082257849E-15, 0.7071067811865496822, -0.7071067811865453523 ) ) ;
#257 = APPROVAL_ROLE ( '' ) ;
#258 = ORIENTED_EDGE ( 'NONE', *, *, #60, .T. ) ;
#259 = ORIENTED_EDGE ( 'NONE', *, *, #14, .T. ) ;
#260 = AXIS2_PLACEMENT_3D ( 'NONE', #213, #38, #58 ) ;
#261 = LOCAL_TIME ( 9, 37, 56.00000000000000000, #92 ) ;
#262 = ORIENTED_EDGE ( 'NONE', *, *, #125, .T. ) ;
#263 = ADVANCED_FACE ( 'NONE', ( #117 ), #188, .T. ) ;
#264 = ORIENTED_EDGE ( 'NONE', *, *, #186, .T. ) ;
#265 = ORIENTED_EDGE ( 'NONE', *, *, #243, .T. ) ;
#266 = COORDINATED_UNIVERSAL_TIME_OFFSET ( 1, 0, .AHEAD. ) ;
#267 = CIRCLE ( 'NONE', #229, 4.800000000000003375 ) ;
#268 = DIRECTION ( 'NONE',  ( -5.135813185032637408E-31, -1.000000000000000000, -1.445602896647341628E-16 ) ) ;
#269 = COORDINATED_UNIVERSAL_TIME_OFFSET ( 1, 0, .AHEAD. ) ;
#270 = PLANE ( 'NONE',  #161 ) ;
#271 = EDGE_CURVE ( 'NONE', #192, #190, #98, .T. ) ;
#272 = PERSON_AND_ORGANIZATION_ROLE ( 'design_supplier' ) ;
#273 = DIRECTION ( 'NONE',  ( -3.491481338843133355E-15, 1.224646799147353207E-16, -1.000000000000000000 ) ) ;
#274 = DIRECTION ( 'NONE',  ( 3.491481338843133355E-15, -1.224646799147353207E-16, 1.000000000000000000 ) ) ;
#275 = EDGE_CURVE ( 'NONE', #127, #175, #123, .T. ) ;
#276 = CARTESIAN_POINT ( 'NONE',  ( 2.094888803305900524E-14, 5.999999999999989342, 6.000000000000058620 ) ) ;
#277 = CARTESIAN_POINT ( 'NONE',  ( 2.883593715922138239E-13, -4.800000000000013145, 83.00000000000000000 ) ) ;
#278 = DIRECTION ( 'NONE',  ( 5.135813185032637408E-31, 1.000000000000000000, 1.445602896647341628E-16 ) ) ;
#279 = CC_DESIGN_APPROVAL ( #52, ( #218 ) ) ;
#280 = CYLINDRICAL_SURFACE ( 'NONE', #151, 5.999999999999996447 ) ;
#281 = UNCERTAINTY_MEASURE_WITH_UNIT (LENGTH_MEASURE( 1.000000000000000082E-05 ), #101, 'distance_accuracy_value', 'NONE');
#282 = CARTESIAN_POINT ( 'NONE',  ( 2.094888803305900208E-14, -7.347880794884189747E-16, 6.000000000000057732 ) ) ;
#283 = CONICAL_SURFACE ( 'NONE', #287, 4.800000000000003375, 0.7853981633974511656 ) ;
#284 = ORIENTED_EDGE ( 'NONE', *, *, #14, .F. ) ;
#285 = ORIENTED_EDGE ( 'NONE', *, *, #103, .T. ) ;
#286 = EDGE_CURVE ( 'NONE', #192, #43, #145, .T. ) ;
#287 = AXIS2_PLACEMENT_3D ( 'NONE', #203, #181, #138 ) ;
ENDSEC;
END-ISO-10303-21;
