ISO-10303-21;
HEADER;
FILE_DESCRIPTION (( 'STEP AP203' ),
    '1' );
FILE_NAME ('43037.step',
    '2021-09-03T07:22:30',
    ( '' ),
    ( '' ),
    'SwSTEP 2.0',
    'SolidWorks 2019',
    '' );
FILE_SCHEMA (( 'CONFIG_CONTROL_DESIGN' ));
ENDSEC;

DATA;
#1 = EDGE_CURVE ( 'NONE', #246, #47, #165, .T. ) ;
#2 = CARTESIAN_POINT ( 'NONE',  ( 0.0000000000000000000, 0.0000000000000000000, 0.0000000000000000000 ) ) ;
#3 = DIRECTION ( 'NONE',  ( -4.164172852729173324E-31, -1.000000000000000000, -1.172110456741090019E-16 ) ) ;
#4 = CARTESIAN_POINT ( 'NONE',  ( 3.881103231373880257E-15, -1.361307762577738431E-16, 1.111592145200994919 ) ) ;
#5 = DIRECTION ( 'NONE',  ( -3.491481338843133355E-15, 1.224646799147353454E-16, -1.000000000000000000 ) ) ;
#6 = DIRECTION ( 'NONE',  ( -3.491481338843133355E-15, 1.224646799147353454E-16, -1.000000000000000000 ) ) ;
#7 = CARTESIAN_POINT ( 'NONE',  ( 1.815570296198429345E-13, -6.368163355566237959E-15, 52.00000000000000000 ) ) ;
#8 = DIRECTION ( 'NONE',  ( 3.491481338843133355E-15, -1.224646799147353454E-16, 1.000000000000000000 ) ) ;
#9 = SECURITY_CLASSIFICATION ( '', '', #219 ) ;
#10 = CIRCLE ( 'NONE', #193, 1.849999999999995204 ) ;
#11 = CARTESIAN_POINT ( 'NONE',  ( 2.265596578422588802E-16, -1.849999999999994538, -2.265596578422604580E-16 ) ) ;
#12 = FACE_OUTER_BOUND ( 'NONE', #280, .T. ) ;
#13 = PLANE ( 'NONE',  #129 ) ;
#14 = EDGE_LOOP ( 'NONE', ( #153, #301, #194, #77 ) ) ;
#15 = APPROVAL ( #249, 'UNSPECIFIED' ) ;
#16 = DIRECTION ( 'NONE',  ( -3.491481338843133355E-15, 1.224646799147353454E-16, -1.000000000000000000 ) ) ;
#17 = APPROVAL_DATE_TIME ( #40, #50 ) ;
#18 = APPROVAL_ROLE ( '' ) ;
#19 = AXIS2_PLACEMENT_3D ( 'NONE', #334, #100, #67 ) ;
#20 = CC_DESIGN_PERSON_AND_ORGANIZATION_ASSIGNMENT ( #222, #107, ( #25 ) ) ;
#21 = ORIENTED_EDGE ( 'NONE', *, *, #218, .T. ) ;
#22 = DIRECTION ( 'NONE',  ( 0.0000000000000000000, 0.0000000000000000000, 1.000000000000000000 ) ) ;
#23 = EDGE_LOOP ( 'NONE', ( #21, #272, #323, #143 ) ) ;
#24 = LOCAL_TIME ( 9, 22, 30.00000000000000000, #148 ) ;
#25 = PRODUCT_DEFINITION_FORMATION_WITH_SPECIFIED_SOURCE ( 'ANY', '', #44, .NOT_KNOWN. ) ;
#26 = DIRECTION ( 'NONE',  ( -3.491481338843133355E-15, 1.224646799147353454E-16, -1.000000000000000000 ) ) ;
#27 = ADVANCED_FACE ( 'NONE', ( #130 ), #328, .T. ) ;
#28 = AXIS2_PLACEMENT_3D ( 'NONE', #242, #6, #316 ) ;
#29 = CC_DESIGN_DATE_AND_TIME_ASSIGNMENT ( #131, #186, ( #9 ) ) ;
#30 = LINE ( 'NONE', #314, #234 ) ;
#31 = LOCAL_TIME ( 9, 22, 30.00000000000000000, #160 ) ;
#32 = FACE_OUTER_BOUND ( 'NONE', #268, .T. ) ;
#33 = DIRECTION ( 'NONE',  ( -3.491481338843133355E-15, 1.224646799147353454E-16, -1.000000000000000000 ) ) ;
#34 = CARTESIAN_POINT ( 'NONE',  ( 0.0000000000000000000, 0.0000000000000000000, 0.0000000000000000000 ) ) ;
#35 = AXIS2_PLACEMENT_3D ( 'NONE', #78, #8, #191 ) ;
#36 = PERSON_AND_ORGANIZATION ( #319, #313 ) ;
#37 = DIRECTION ( 'NONE',  ( 0.0000000000000000000, 1.000000000000000000, 0.0000000000000000000 ) ) ;
#38 = EDGE_CURVE ( 'NONE', #279, #208, #42, .T. ) ;
#39 = COORDINATED_UNIVERSAL_TIME_OFFSET ( 1, 0, .AHEAD. ) ;
#40 = DATE_AND_TIME ( #195, #270 ) ;
#41 = CARTESIAN_POINT ( 'NONE',  ( 1.815570296198429345E-13, 1.449999999999993294, 52.00000000000000000 ) ) ;
#42 = CIRCLE ( 'NONE', #114, 1.449999999999999734 ) ;
#43 = ORIENTED_EDGE ( 'NONE', *, *, #264, .T. ) ;
#44 = PRODUCT ( '43037', '43037', '', ( #192 ) ) ;
#45 = DATE_AND_TIME ( #147, #162 ) ;
#46 = APPLICATION_CONTEXT ( 'configuration controlled 3d designs of mechanical parts and assemblies' ) ;
#47 = VERTEX_POINT ( 'NONE', #64 ) ;
#48 = AXIS2_PLACEMENT_3D ( 'NONE', #211, #22, #320 ) ;
#49 =( LENGTH_UNIT ( ) NAMED_UNIT ( * ) SI_UNIT ( .MILLI., .METRE. ) );
#50 = APPROVAL ( #262, 'UNSPECIFIED' ) ;
#51 = EDGE_LOOP ( 'NONE', ( #212, #237, #156, #278 ) ) ;
#52 = DATE_TIME_ROLE ( 'creation_date' ) ;
#53 = CIRCLE ( 'NONE', #174, 1.849999999999995204 ) ;
#54 = DIRECTION ( 'NONE',  ( -3.491481338843133355E-15, 1.224646799147353454E-16, -1.000000000000000000 ) ) ;
#55 = FACE_OUTER_BOUND ( 'NONE', #258, .T. ) ;
#56 = CARTESIAN_POINT ( 'NONE',  ( 1.815570296198429345E-13, 1.087325842429837597E-32, 52.00000000000000000 ) ) ;
#57 = APPROVAL_PERSON_ORGANIZATION ( #112, #290, #170 ) ;
#58 = CIRCLE ( 'NONE', #292, 1.849999999999993650 ) ;
#59 = DIRECTION ( 'NONE',  ( 0.0000000000000000000, 1.000000000000000000, 0.0000000000000000000 ) ) ;
#60 = ORIENTED_EDGE ( 'NONE', *, *, #138, .F. ) ;
#61 = ORIENTED_EDGE ( 'NONE', *, *, #297, .T. ) ;
#62 = APPROVAL_ROLE ( '' ) ;
#63 = SHAPE_DEFINITION_REPRESENTATION ( #94, #227 ) ;
#64 = CARTESIAN_POINT ( 'NONE',  ( 3.881103231373879468E-15, -1.849999999999993872, 1.111592145200994697 ) ) ;
#65 = DIRECTION ( 'NONE',  ( 1.798245827342160317E-15, -0.8571673007021098911, 0.5150380749100582634 ) ) ;
#66 = ORIENTED_EDGE ( 'NONE', *, *, #315, .F. ) ;
#67 = DIRECTION ( 'NONE',  ( 4.275831445896959482E-31, 1.000000000000000000, 1.224646799147353454E-16 ) ) ;
#68 = LINE ( 'NONE', #187, #266 ) ;
#69 = EDGE_CURVE ( 'NONE', #282, #333, #53, .T. ) ;
#70 = VERTEX_POINT ( 'NONE', #99 ) ;
#71 = VECTOR ( 'NONE', #65, 1000.000000000000000 ) ;
#72 = AXIS2_PLACEMENT_3D ( 'NONE', #205, #172, #231 ) ;
#73 = CALENDAR_DATE ( 2021, 3, 9 ) ;
#74 = CARTESIAN_POINT ( 'NONE',  ( 3.881103231373879468E-15, -1.849999999999993872, 1.111592145200994697 ) ) ;
#75 = ORIENTED_EDGE ( 'NONE', *, *, #264, .F. ) ;
#76 = CYLINDRICAL_SURFACE ( 'NONE', #136, 1.849999999999997424 ) ;
#77 = ORIENTED_EDGE ( 'NONE', *, *, #291, .F. ) ;
#78 = CARTESIAN_POINT ( 'NONE',  ( 5.237222008264700033E-14, 1.387277798962212813E-32, 15.00000000000000000 ) ) ;
#79 = FACE_OUTER_BOUND ( 'NONE', #210, .T. ) ;
#80 = LINE ( 'NONE', #163, #318 ) ;
#81 = EDGE_LOOP ( 'NONE', ( #66, #209, #124 ) ) ;
#82 = CC_DESIGN_PERSON_AND_ORGANIZATION_ASSIGNMENT ( #101, #105, ( #25 ) ) ;
#83 = ORIENTED_EDGE ( 'NONE', *, *, #204, .F. ) ;
#84 = EDGE_LOOP ( 'NONE', ( #97, #75 ) ) ;
#85 = DIRECTION ( 'NONE',  ( 3.491481338843133355E-15, -1.224646799147353454E-16, 1.000000000000000000 ) ) ;
#86 = VECTOR ( 'NONE', #125, 1000.000000000000000 ) ;
#87 = ADVANCED_FACE ( 'NONE', ( #253 ), #286, .T. ) ;
#88 = CONICAL_SURFACE ( 'NONE', #200, 1.849999999999993650, 1.029744258676649649 ) ;
#89 = DIRECTION ( 'NONE',  ( 4.275831445896959482E-31, 1.000000000000000000, 1.224646799147353454E-16 ) ) ;
#90 = ORIENTED_EDGE ( 'NONE', *, *, #1, .F. ) ;
#91 = ORIENTED_EDGE ( 'NONE', *, *, #315, .T. ) ;
#92 = CARTESIAN_POINT ( 'NONE',  ( 5.237222008264700033E-14, 1.849999999999993427, 15.00000000000000000 ) ) ;
#93 = APPROVAL_DATE_TIME ( #145, #290 ) ;
#94 = PRODUCT_DEFINITION_SHAPE ( 'NONE', 'NONE',  #132 ) ;
#95 = CARTESIAN_POINT ( 'NONE',  ( 5.237222008264700033E-14, 1.387277798962212813E-32, 15.00000000000000000 ) ) ;
#96 = AXIS2_PLACEMENT_3D ( 'NONE', #180, #317, #3 ) ;
#97 = ORIENTED_EDGE ( 'NONE', *, *, #218, .F. ) ;
#98 = LINE ( 'NONE', #123, #86 ) ;
#99 = CARTESIAN_POINT ( 'NONE',  ( 5.237222008264700033E-14, 1.849999999999993427, 15.00000000000000000 ) ) ;
#100 = DIRECTION ( 'NONE',  ( -3.491481338843133355E-15, 1.224646799147353454E-16, -1.000000000000000000 ) ) ;
#101 = PERSON_AND_ORGANIZATION ( #319, #313 ) ;
#102 = ADVANCED_FACE ( 'NONE', ( #134 ), #221, .T. ) ;
#103 = DIRECTION ( 'NONE',  ( -3.491481338843133355E-15, 1.224646799147353454E-16, -1.000000000000000000 ) ) ;
#104 = DIRECTION ( 'NONE',  ( -2.382254525458708792E-15, -0.7071067811865495711, -0.7071067811865455743 ) ) ;
#105 = PERSON_AND_ORGANIZATION_ROLE ( 'creator' ) ;
#106 = DIRECTION ( 'NONE',  ( -3.491481338843133355E-15, 1.224646799147353454E-16, -1.000000000000000000 ) ) ;
#107 = PERSON_AND_ORGANIZATION_ROLE ( 'design_supplier' ) ;
#108 = DIRECTION ( 'NONE',  ( -3.491481338843133355E-15, 1.224646799147353454E-16, -1.000000000000000000 ) ) ;
#109 = ADVANCED_FACE ( 'NONE', ( #55 ), #164, .T. ) ;
#110 = ORIENTED_EDGE ( 'NONE', *, *, #111, .F. ) ;
#111 = EDGE_CURVE ( 'NONE', #259, #47, #310, .T. ) ;
#112 = PERSON_AND_ORGANIZATION ( #319, #313 ) ;
#113 = DIRECTION ( 'NONE',  ( -4.164172852729173324E-31, -1.000000000000000000, -1.172110456741090019E-16 ) ) ;
#114 = AXIS2_PLACEMENT_3D ( 'NONE', #254, #199, #173 ) ;
#115 = LINE ( 'NONE', #252, #150 ) ;
#116 = PERSON_AND_ORGANIZATION ( #319, #313 ) ;
#117 = CC_DESIGN_PERSON_AND_ORGANIZATION_ASSIGNMENT ( #309, #284, ( #9 ) ) ;
#118 = CARTESIAN_POINT ( 'NONE',  ( 5.237222008264700033E-14, -1.836970198721029983E-15, 15.00000000000000000 ) ) ;
#119 = CARTESIAN_POINT ( 'NONE',  ( 1.815570296198429345E-13, -6.368163355566237959E-15, 52.00000000000000000 ) ) ;
#120 = DESIGN_CONTEXT ( 'detailed design', #46, 'design' ) ;
#121 = EDGE_CURVE ( 'NONE', #208, #139, #68, .T. ) ;
#122 = ORIENTED_EDGE ( 'NONE', *, *, #331, .T. ) ;
#123 = CARTESIAN_POINT ( 'NONE',  ( 7.910288174909363525E-31, 1.849999999999997424, 2.265596578422601128E-16 ) ) ;
#124 = ORIENTED_EDGE ( 'NONE', *, *, #204, .T. ) ;
#125 = DIRECTION ( 'NONE',  ( -3.491481338843133355E-15, 1.224646799147353454E-16, -1.000000000000000000 ) ) ;
#126 = ORIENTED_EDGE ( 'NONE', *, *, #267, .T. ) ;
#127 = CYLINDRICAL_SURFACE ( 'NONE', #296, 1.849999999999997424 ) ;
#128 = AXIS2_PLACEMENT_3D ( 'NONE', #233, #103, #236 ) ;
#129 = AXIS2_PLACEMENT_3D ( 'NONE', #56, #54, #89 ) ;
#130 = FACE_OUTER_BOUND ( 'NONE', #14, .T. ) ;
#131 = DATE_AND_TIME ( #73, #31 ) ;
#132 = PRODUCT_DEFINITION ( 'UNKNOWN', '', #25, #120 ) ;
#133 = CARTESIAN_POINT ( 'NONE',  ( 2.265596578422592747E-16, -1.849999999999997424, -2.265596578422608524E-16 ) ) ;
#134 = FACE_OUTER_BOUND ( 'NONE', #84, .T. ) ;
#135 = DIRECTION ( 'NONE',  ( 4.275831445896959482E-31, 1.000000000000000000, 1.224646799147353700E-16 ) ) ;
#136 = AXIS2_PLACEMENT_3D ( 'NONE', #2, #137, #220 ) ;
#137 = DIRECTION ( 'NONE',  ( -3.491481338843133355E-15, 1.224646799147353454E-16, -1.000000000000000000 ) ) ;
#138 = EDGE_CURVE ( 'NONE', #139, #257, #141, .T. ) ;
#139 = VERTEX_POINT ( 'NONE', #182 ) ;
#140 = FACE_OUTER_BOUND ( 'NONE', #81, .T. ) ;
#141 = CIRCLE ( 'NONE', #189, 1.849999999999999645 ) ;
#142 = DIRECTION ( 'NONE',  ( 0.0000000000000000000, 1.000000000000000000, 0.0000000000000000000 ) ) ;
#143 = ORIENTED_EDGE ( 'NONE', *, *, #159, .F. ) ;
#144 = DIRECTION ( 'NONE',  ( -3.491481338843133355E-15, 1.224646799147353454E-16, -1.000000000000000000 ) ) ;
#145 = DATE_AND_TIME ( #198, #300 ) ;
#146 = ADVANCED_FACE ( 'NONE', ( #12 ), #127, .T. ) ;
#147 = CALENDAR_DATE ( 2021, 3, 9 ) ;
#148 = COORDINATED_UNIVERSAL_TIME_OFFSET ( 1, 0, .AHEAD. ) ;
#149 = DIRECTION ( 'NONE',  ( 4.164172852729173324E-31, 1.000000000000000000, 1.172110456741090019E-16 ) ) ;
#150 = VECTOR ( 'NONE', #326, 1000.000000000000114 ) ;
#151 = CIRCLE ( 'NONE', #128, 1.849999999999993650 ) ;
#152 = ORIENTED_EDGE ( 'NONE', *, *, #178, .F. ) ;
#153 = ORIENTED_EDGE ( 'NONE', *, *, #38, .T. ) ;
#154 = APPROVAL_PERSON_ORGANIZATION ( #36, #15, #62 ) ;
#155 = AXIS2_PLACEMENT_3D ( 'NONE', #175, #294, #142 ) ;
#156 = ORIENTED_EDGE ( 'NONE', *, *, #178, .T. ) ;
#157 = CC_DESIGN_APPROVAL ( #290, ( #9 ) ) ;
#158 = CARTESIAN_POINT ( 'NONE',  ( 1.810608000739336044E-13, -1.450000000000005951, 52.00000000000000000 ) ) ;
#159 = EDGE_CURVE ( 'NONE', #70, #261, #30, .T. ) ;
#160 = COORDINATED_UNIVERSAL_TIME_OFFSET ( 1, 0, .AHEAD. ) ;
#161 = CARTESIAN_POINT ( 'NONE',  ( 4.107662889216140124E-15, 1.849999999999993427, 1.111592145200995141 ) ) ;
#162 = LOCAL_TIME ( 9, 22, 30.00000000000000000, #276 ) ;
#163 = CARTESIAN_POINT ( 'NONE',  ( 4.107662889216140124E-15, 1.849999999999993427, 1.111592145200995141 ) ) ;
#164 = CYLINDRICAL_SURFACE ( 'NONE', #228, 1.849999999999994538 ) ;
#165 = LINE ( 'NONE', #11, #245 ) ;
#166 = MANIFOLD_SOLID_BREP ( 'Corps-Déplacer/Copier1[2]', #263 ) ;
#167 = ADVANCED_FACE ( 'NONE', ( #239 ), #76, .T. ) ;
#168 = CONICAL_SURFACE ( 'NONE', #155, 1.449999999999999734, 0.7853981633974512766 ) ;
#169 = APPROVAL_STATUS ( 'not_yet_approved' ) ;
#170 = APPROVAL_ROLE ( '' ) ;
#171 = MANIFOLD_SOLID_BREP ( 'Corps-Déplacer/Copier1[1]', #255 ) ;
#172 = DIRECTION ( 'NONE',  ( -3.491481338843133355E-15, 1.224646799147353454E-16, -1.000000000000000000 ) ) ;
#173 = DIRECTION ( 'NONE',  ( 0.0000000000000000000, 1.000000000000000000, 0.0000000000000000000 ) ) ;
#174 = AXIS2_PLACEMENT_3D ( 'NONE', #118, #16, #37 ) ;
#175 = CARTESIAN_POINT ( 'NONE',  ( 1.815570296198429345E-13, -6.368163355566237959E-15, 52.00000000000000000 ) ) ;
#176 = PRODUCT_RELATED_PRODUCT_CATEGORY ( 'detail', '', ( #44 ) ) ;
#177 = ORIENTED_EDGE ( 'NONE', *, *, #38, .F. ) ;
#178 = EDGE_CURVE ( 'NONE', #257, #282, #98, .T. ) ;
#179 = DIRECTION ( 'NONE',  ( -3.491481338843133355E-15, 1.224646799147353454E-16, -1.000000000000000000 ) ) ;
#180 = CARTESIAN_POINT ( 'NONE',  ( 3.881103231373880257E-15, -1.361307762577738431E-16, 1.111592145200994919 ) ) ;
#181 = AXIS2_PLACEMENT_3D ( 'NONE', #95, #277, #273 ) ;
#182 = CARTESIAN_POINT ( 'NONE',  ( 1.164928882413184341E-13, -1.850000000000005862, 51.60000000000000142 ) ) ;
#183 = CC_DESIGN_SECURITY_CLASSIFICATION ( #9, ( #25 ) ) ;
#184 = CIRCLE ( 'NONE', #202, 1.449999999999999734 ) ;
#185 = APPLICATION_CONTEXT ( 'configuration controlled 3d designs of mechanical parts and assemblies' ) ;
#186 = DATE_TIME_ROLE ( 'classification_date' ) ;
#187 = CARTESIAN_POINT ( 'NONE',  ( 1.817346034057193017E-13, -1.450000000000005951, 52.00000000000000000 ) ) ;
#188 = ADVANCED_FACE ( 'NONE', ( #304 ), #306, .T. ) ;
#189 = AXIS2_PLACEMENT_3D ( 'NONE', #281, #256, #332 ) ;
#190 = CALENDAR_DATE ( 2021, 3, 9 ) ;
#191 = DIRECTION ( 'NONE',  ( -4.275831445896959482E-31, -1.000000000000000000, -1.224646799147353454E-16 ) ) ;
#192 = MECHANICAL_CONTEXT ( 'NONE', #185, 'mechanical' ) ;
#193 = AXIS2_PLACEMENT_3D ( 'NONE', #327, #26, #214 ) ;
#194 = ORIENTED_EDGE ( 'NONE', *, *, #297, .F. ) ;
#195 = CALENDAR_DATE ( 2021, 3, 9 ) ;
#196 = DIRECTION ( 'NONE',  ( -3.491481338843133355E-15, 1.224646799147353454E-16, -1.000000000000000000 ) ) ;
#197 = CC_DESIGN_PERSON_AND_ORGANIZATION_ASSIGNMENT ( #217, #308, ( #44 ) ) ;
#198 = CALENDAR_DATE ( 2021, 3, 9 ) ;
#199 = DIRECTION ( 'NONE',  ( -3.491481338843133355E-15, 1.224646799147353454E-16, -1.000000000000000000 ) ) ;
#200 = AXIS2_PLACEMENT_3D ( 'NONE', #4, #85, #113 ) ;
#201 = PERSON_AND_ORGANIZATION_ROLE ( 'creator' ) ;
#202 = AXIS2_PLACEMENT_3D ( 'NONE', #7, #33, #59 ) ;
#203 = ORIENTED_EDGE ( 'NONE', *, *, #305, .T. ) ;
#204 = EDGE_CURVE ( 'NONE', #47, #261, #151, .T. ) ;
#205 = CARTESIAN_POINT ( 'NONE',  ( 5.237222008264700033E-14, -1.836970198721029983E-15, 15.00000000000000000 ) ) ;
#206 = APPROVAL_DATE_TIME ( #45, #15 ) ;
#207 = FACE_OUTER_BOUND ( 'NONE', #303, .T. ) ;
#208 = VERTEX_POINT ( 'NONE', #158 ) ;
#209 = ORIENTED_EDGE ( 'NONE', *, *, #111, .T. ) ;
#210 = EDGE_LOOP ( 'NONE', ( #177, #330 ) ) ;
#211 = CARTESIAN_POINT ( 'NONE',  ( 0.0000000000000000000, 0.0000000000000000000, 0.0000000000000000000 ) ) ;
#212 = ORIENTED_EDGE ( 'NONE', *, *, #325, .F. ) ;
#213 =( GEOMETRIC_REPRESENTATION_CONTEXT ( 3 ) GLOBAL_UNCERTAINTY_ASSIGNED_CONTEXT ( ( #275 ) ) GLOBAL_UNIT_ASSIGNED_CONTEXT ( ( #49, #216, #240 ) ) REPRESENTATION_CONTEXT ( 'NONE', 'WORKASPACE' ) );
#214 = DIRECTION ( 'NONE',  ( 0.0000000000000000000, 1.000000000000000000, 0.0000000000000000000 ) ) ;
#215 = ADVANCED_FACE ( 'NONE', ( #207 ), #299, .F. ) ;
#216 =( NAMED_UNIT ( * ) PLANE_ANGLE_UNIT ( ) SI_UNIT ( $, .RADIAN. ) );
#217 = PERSON_AND_ORGANIZATION ( #319, #313 ) ;
#218 = EDGE_CURVE ( 'NONE', #70, #246, #10, .T. ) ;
#219 = SECURITY_CLASSIFICATION_LEVEL ( 'unclassified' ) ;
#220 = DIRECTION ( 'NONE',  ( 4.275831445896959482E-31, 1.000000000000000000, 1.224646799147353700E-16 ) ) ;
#221 = PLANE ( 'NONE',  #35 ) ;
#222 = PERSON_AND_ORGANIZATION ( #319, #313 ) ;
#223 = CARTESIAN_POINT ( 'NONE',  ( 1.801604370843056811E-13, 1.849999999999993427, 51.60000000000000142 ) ) ;
#224 = ORIENTED_EDGE ( 'NONE', *, *, #121, .F. ) ;
#225 = ORIENTED_EDGE ( 'NONE', *, *, #325, .T. ) ;
#226 = APPLICATION_PROTOCOL_DEFINITION ( 'international standard', 'config_control_design', 1994, #46 ) ;
#227 = ADVANCED_BREP_SHAPE_REPRESENTATION ( '43037', ( #171, #166, #48 ), #213 ) ;
#228 = AXIS2_PLACEMENT_3D ( 'NONE', #34, #196, #235 ) ;
#229 = CARTESIAN_POINT ( 'NONE',  ( 1.164928882413185351E-13, -1.849999999999996758, 15.00000000000000000 ) ) ;
#230 = CC_DESIGN_APPROVAL ( #15, ( #132 ) ) ;
#231 = DIRECTION ( 'NONE',  ( 0.0000000000000000000, 1.000000000000000000, 0.0000000000000000000 ) ) ;
#232 = APPLICATION_PROTOCOL_DEFINITION ( 'international standard', 'config_control_design', 1994, #185 ) ;
#233 = CARTESIAN_POINT ( 'NONE',  ( 3.881103231373880257E-15, -1.361307762577738431E-16, 1.111592145200994919 ) ) ;
#234 = VECTOR ( 'NONE', #106, 1000.000000000000000 ) ;
#235 = DIRECTION ( 'NONE',  ( 4.275831445896959482E-31, 1.000000000000000000, 1.224646799147353454E-16 ) ) ;
#236 = DIRECTION ( 'NONE',  ( 4.164172852729173324E-31, 1.000000000000000000, 1.172110456741090019E-16 ) ) ;
#237 = ORIENTED_EDGE ( 'NONE', *, *, #138, .T. ) ;
#238 = CIRCLE ( 'NONE', #28, 1.849999999999995204 ) ;
#239 = FACE_OUTER_BOUND ( 'NONE', #51, .T. ) ;
#240 =( NAMED_UNIT ( * ) SI_UNIT ( $, .STERADIAN. ) SOLID_ANGLE_UNIT ( ) );
#241 = CARTESIAN_POINT ( 'NONE',  ( 0.0000000000000000000, 0.0000000000000000000, 0.0000000000000000000 ) ) ;
#242 = CARTESIAN_POINT ( 'NONE',  ( 5.237222008264700033E-14, -1.836970198721029983E-15, 15.00000000000000000 ) ) ;
#243 = LINE ( 'NONE', #133, #287 ) ;
#244 = CC_DESIGN_DATE_AND_TIME_ASSIGNMENT ( #322, #52, ( #132 ) ) ;
#245 = VECTOR ( 'NONE', #108, 1000.000000000000000 ) ;
#246 = VERTEX_POINT ( 'NONE', #335 ) ;
#247 = ADVANCED_FACE ( 'NONE', ( #79 ), #13, .F. ) ;
#248 = COORDINATED_UNIVERSAL_TIME_OFFSET ( 1, 0, .AHEAD. ) ;
#249 = APPROVAL_STATUS ( 'not_yet_approved' ) ;
#250 = ORIENTED_EDGE ( 'NONE', *, *, #69, .F. ) ;
#251 = ADVANCED_FACE ( 'NONE', ( #140 ), #88, .T. ) ;
#252 = CARTESIAN_POINT ( 'NONE',  ( 1.815570296198429345E-13, 1.449999999999993294, 52.00000000000000000 ) ) ;
#253 = FACE_OUTER_BOUND ( 'NONE', #271, .T. ) ;
#254 = CARTESIAN_POINT ( 'NONE',  ( 1.815570296198429345E-13, -6.368163355566237959E-15, 52.00000000000000000 ) ) ;
#255 = CLOSED_SHELL ( 'NONE', ( #27, #146, #215, #167, #321, #247 ) ) ;
#256 = DIRECTION ( 'NONE',  ( -3.491481338843133355E-15, 1.224646799147353454E-16, -1.000000000000000000 ) ) ;
#257 = VERTEX_POINT ( 'NONE', #223 ) ;
#258 = EDGE_LOOP ( 'NONE', ( #90, #43, #312, #83 ) ) ;
#259 = VERTEX_POINT ( 'NONE', #324 ) ;
#260 = ORIENTED_EDGE ( 'NONE', *, *, #69, .T. ) ;
#261 = VERTEX_POINT ( 'NONE', #161 ) ;
#262 = APPROVAL_STATUS ( 'not_yet_approved' ) ;
#263 = CLOSED_SHELL ( 'NONE', ( #188, #87, #251, #109, #102 ) ) ;
#264 = EDGE_CURVE ( 'NONE', #246, #70, #285, .T. ) ;
#265 = DIRECTION ( 'NONE',  ( 1.903218546456022717E-15, 0.8571673007021097801, 0.5150380749100585964 ) ) ;
#266 = VECTOR ( 'NONE', #104, 1000.000000000000114 ) ;
#267 = EDGE_CURVE ( 'NONE', #261, #47, #58, .T. ) ;
#268 = EDGE_LOOP ( 'NONE', ( #224, #122, #293, #60 ) ) ;
#269 = CARTESIAN_POINT ( 'NONE',  ( 3.881103231373880257E-15, -1.361307762577738431E-16, 1.111592145200994919 ) ) ;
#270 = LOCAL_TIME ( 9, 22, 30.00000000000000000, #248 ) ;
#271 = EDGE_LOOP ( 'NONE', ( #110, #91, #126 ) ) ;
#272 = ORIENTED_EDGE ( 'NONE', *, *, #1, .T. ) ;
#273 = DIRECTION ( 'NONE',  ( -4.275831445896959482E-31, -1.000000000000000000, -1.224646799147353454E-16 ) ) ;
#274 = CARTESIAN_POINT ( 'NONE',  ( 1.801604370843056811E-13, -6.319177483600343742E-15, 51.60000000000000142 ) ) ;
#275 = UNCERTAINTY_MEASURE_WITH_UNIT (LENGTH_MEASURE( 1.000000000000000082E-05 ), #49, 'distance_accuracy_value', 'NONE');
#276 = COORDINATED_UNIVERSAL_TIME_OFFSET ( 1, 0, .AHEAD. ) ;
#277 = DIRECTION ( 'NONE',  ( 3.491481338843133355E-15, -1.224646799147353454E-16, 1.000000000000000000 ) ) ;
#278 = ORIENTED_EDGE ( 'NONE', *, *, #305, .F. ) ;
#279 = VERTEX_POINT ( 'NONE', #41 ) ;
#280 = EDGE_LOOP ( 'NONE', ( #61, #225, #250, #152 ) ) ;
#281 = CARTESIAN_POINT ( 'NONE',  ( 1.801604370843056811E-13, -6.319177483600343742E-15, 51.60000000000000142 ) ) ;
#282 = VERTEX_POINT ( 'NONE', #92 ) ;
#283 = DIRECTION ( 'NONE',  ( 0.0000000000000000000, 1.000000000000000000, 0.0000000000000000000 ) ) ;
#284 = PERSON_AND_ORGANIZATION_ROLE ( 'classification_officer' ) ;
#285 = CIRCLE ( 'NONE', #72, 1.849999999999995204 ) ;
#286 = CONICAL_SURFACE ( 'NONE', #96, 1.849999999999993650, 1.029744258676649649 ) ;
#287 = VECTOR ( 'NONE', #336, 1000.000000000000000 ) ;
#288 = CC_DESIGN_PERSON_AND_ORGANIZATION_ASSIGNMENT ( #116, #201, ( #132 ) ) ;
#289 = PERSON_AND_ORGANIZATION ( #319, #313 ) ;
#290 = APPROVAL ( #169, 'UNSPECIFIED' ) ;
#291 = EDGE_CURVE ( 'NONE', #279, #257, #115, .T. ) ;
#292 = AXIS2_PLACEMENT_3D ( 'NONE', #269, #329, #149 ) ;
#293 = ORIENTED_EDGE ( 'NONE', *, *, #291, .T. ) ;
#294 = DIRECTION ( 'NONE',  ( -3.491481338843133355E-15, 1.224646799147353454E-16, -1.000000000000000000 ) ) ;
#295 = APPROVAL_PERSON_ORGANIZATION ( #289, #50, #18 ) ;
#296 = AXIS2_PLACEMENT_3D ( 'NONE', #241, #5, #135 ) ;
#297 = EDGE_CURVE ( 'NONE', #257, #139, #337, .T. ) ;
#298 = DIRECTION ( 'NONE',  ( 0.0000000000000000000, 1.000000000000000000, 0.0000000000000000000 ) ) ;
#299 = PLANE ( 'NONE',  #181 ) ;
#300 = LOCAL_TIME ( 9, 22, 30.00000000000000000, #39 ) ;
#301 = ORIENTED_EDGE ( 'NONE', *, *, #121, .T. ) ;
#302 = AXIS2_PLACEMENT_3D ( 'NONE', #119, #144, #298 ) ;
#303 = EDGE_LOOP ( 'NONE', ( #260, #203 ) ) ;
#304 = FACE_OUTER_BOUND ( 'NONE', #23, .T. ) ;
#305 = EDGE_CURVE ( 'NONE', #333, #282, #238, .T. ) ;
#306 = CYLINDRICAL_SURFACE ( 'NONE', #19, 1.849999999999994538 ) ;
#307 = CC_DESIGN_APPROVAL ( #50, ( #25 ) ) ;
#308 = PERSON_AND_ORGANIZATION_ROLE ( 'design_owner' ) ;
#309 = PERSON_AND_ORGANIZATION ( #319, #313 ) ;
#310 = LINE ( 'NONE', #74, #71 ) ;
#311 = AXIS2_PLACEMENT_3D ( 'NONE', #274, #179, #283 ) ;
#312 = ORIENTED_EDGE ( 'NONE', *, *, #159, .T. ) ;
#313 = ORGANIZATION ( 'UNSPECIFIED', 'UNSPECIFIED', '' ) ;
#314 = CARTESIAN_POINT ( 'NONE',  ( 7.910288174909351264E-31, 1.849999999999994538, 2.265596578422597184E-16 ) ) ;
#315 = EDGE_CURVE ( 'NONE', #259, #261, #80, .T. ) ;
#316 = DIRECTION ( 'NONE',  ( 0.0000000000000000000, 1.000000000000000000, 0.0000000000000000000 ) ) ;
#317 = DIRECTION ( 'NONE',  ( 3.491481338843133355E-15, -1.224646799147353454E-16, 1.000000000000000000 ) ) ;
#318 = VECTOR ( 'NONE', #265, 999.9999999999998863 ) ;
#319 = PERSON ( 'UNSPECIFIED', 'UNSPECIFIED', 'UNSPECIFIED', ('UNSPECIFIED'), ('UNSPECIFIED'), ('UNSPECIFIED') ) ;
#320 = DIRECTION ( 'NONE',  ( 1.000000000000000000, 0.0000000000000000000, 0.0000000000000000000 ) ) ;
#321 = ADVANCED_FACE ( 'NONE', ( #32 ), #168, .T. ) ;
#322 = DATE_AND_TIME ( #190, #24 ) ;
#323 = ORIENTED_EDGE ( 'NONE', *, *, #267, .F. ) ;
#324 = CARTESIAN_POINT ( 'NONE',  ( 0.0000000000000000000, 0.0000000000000000000, 0.0000000000000000000 ) ) ;
#325 = EDGE_CURVE ( 'NONE', #139, #333, #243, .T. ) ;
#326 = DIRECTION ( 'NONE',  ( -2.468850131082257455E-15, 0.7071067811865497932, -0.7071067811865453523 ) ) ;
#327 = CARTESIAN_POINT ( 'NONE',  ( 5.237222008264700033E-14, -1.836970198721029983E-15, 15.00000000000000000 ) ) ;
#328 = CONICAL_SURFACE ( 'NONE', #302, 1.449999999999999734, 0.7853981633974512766 ) ;
#329 = DIRECTION ( 'NONE',  ( -3.491481338843133355E-15, 1.224646799147353454E-16, -1.000000000000000000 ) ) ;
#330 = ORIENTED_EDGE ( 'NONE', *, *, #331, .F. ) ;
#331 = EDGE_CURVE ( 'NONE', #208, #279, #184, .T. ) ;
#332 = DIRECTION ( 'NONE',  ( 0.0000000000000000000, 1.000000000000000000, 0.0000000000000000000 ) ) ;
#333 = VERTEX_POINT ( 'NONE', #229 ) ;
#334 = CARTESIAN_POINT ( 'NONE',  ( 0.0000000000000000000, 0.0000000000000000000, 0.0000000000000000000 ) ) ;
#335 = CARTESIAN_POINT ( 'NONE',  ( 2.835322131485268044E-14, -1.849999999999996980, 15.00000000000000000 ) ) ;
#336 = DIRECTION ( 'NONE',  ( -3.491481338843133355E-15, 1.224646799147353454E-16, -1.000000000000000000 ) ) ;
#337 = CIRCLE ( 'NONE', #311, 1.849999999999999645 ) ;
ENDSEC;
END-ISO-10303-21;
