ISO-10303-21;
HEADER;
FILE_DESCRIPTION (( 'STEP AP203' ),
    '1' );
FILE_NAME ('42939.step',
    '2021-10-15T13:34:52',
    ( '' ),
    ( '' ),
    'SwSTEP 2.0',
    'SolidWorks 2019',
    '' );
FILE_SCHEMA (( 'CONFIG_CONTROL_DESIGN' ));
ENDSEC;

DATA;
#1 = LOCAL_TIME ( 15, 34, 52.00000000000000000, #187 ) ;
#2 = DATE_AND_TIME ( #76, #14 ) ;
#3 = CIRCLE ( 'NONE', #17, 2.049999999999993161 ) ;
#4 = CARTESIAN_POINT ( 'NONE',  ( 1.902857329669507616E-13, 2.049999999999993161, 54.50000000000000000 ) ) ;
#5 = CARTESIAN_POINT ( 'NONE',  ( 1.920314736363723472E-13, -6.735557395310442615E-15, 55.00000000000000000 ) ) ;
#6 = FACE_BOUND ( 'NONE', #66, .T. ) ;
#7 = DIRECTION ( 'NONE',  ( -3.491481338843133355E-15, 1.224646799147353207E-16, -1.000000000000000000 ) ) ;
#8 = EDGE_LOOP ( 'NONE', ( #86 ) ) ;
#9 = LOCAL_TIME ( 15, 34, 52.00000000000000000, #70 ) ;
#10 = APPROVAL_PERSON_ORGANIZATION ( #55, #74, #158 ) ;
#11 = ORIENTED_EDGE ( 'NONE', *, *, #29, .T. ) ;
#12 = CC_DESIGN_DATE_AND_TIME_ASSIGNMENT ( #159, #75, ( #125 ) ) ;
#13 = SECURITY_CLASSIFICATION_LEVEL ( 'unclassified' ) ;
#14 = LOCAL_TIME ( 15, 34, 52.00000000000000000, #91 ) ;
#15 = APPROVAL_STATUS ( 'not_yet_approved' ) ;
#16 = PERSON_AND_ORGANIZATION_ROLE ( 'design_owner' ) ;
#17 = AXIS2_PLACEMENT_3D ( 'NONE', #176, #81, #51 ) ;
#18 = PERSON_AND_ORGANIZATION ( #183, #124 ) ;
#19 = CARTESIAN_POINT ( 'NONE',  ( 7.681258945454893382E-14, -2.694222958124176809E-15, 22.00000000000000000 ) ) ;
#20 = APPLICATION_CONTEXT ( 'configuration controlled 3d designs of mechanical parts and assemblies' ) ;
#21 = CC_DESIGN_DATE_AND_TIME_ASSIGNMENT ( #185, #155, ( #113 ) ) ;
#22 = FACE_OUTER_BOUND ( 'NONE', #84, .T. ) ;
#23 = ADVANCED_FACE ( 'NONE', ( #52 ), #115, .F. ) ;
#24 = CARTESIAN_POINT ( 'NONE',  ( 1.920314736363723472E-13, 1.549999999999993161, 55.00000000000000000 ) ) ;
#25 = CARTESIAN_POINT ( 'NONE',  ( 7.681258945454893382E-14, 1.537253777228396932E-32, 22.00000000000000000 ) ) ;
#26 = DIRECTION ( 'NONE',  ( 0.0000000000000000000, 1.000000000000000000, 0.0000000000000000000 ) ) ;
#27 = CLOSED_SHELL ( 'NONE', ( #61, #139, #38, #23 ) ) ;
#28 = EDGE_LOOP ( 'NONE', ( #69 ) ) ;
#29 = EDGE_CURVE ( 'NONE', #165, #165, #32, .T. ) ;
#30 = EDGE_LOOP ( 'NONE', ( #101 ) ) ;
#31 = FACE_OUTER_BOUND ( 'NONE', #83, .T. ) ;
#32 = CIRCLE ( 'NONE', #134, 1.550000000000000044 ) ;
#33 = PERSON_AND_ORGANIZATION ( #183, #124 ) ;
#34 = ADVANCED_FACE ( 'NONE', ( #31 ), #90, .T. ) ;
#35 = PERSON_AND_ORGANIZATION ( #183, #124 ) ;
#36 = PERSON_AND_ORGANIZATION_ROLE ( 'creator' ) ;
#37 = AXIS2_PLACEMENT_3D ( 'NONE', #49, #110, #41 ) ;
#38 = ADVANCED_FACE ( 'NONE', ( #122, #6 ), #160, .T. ) ;
#39 = CARTESIAN_POINT ( 'NONE',  ( 2.605130325711385034E-15, -9.137567138769940152E-17, 0.7461389802457223386 ) ) ;
#40 = CARTESIAN_POINT ( 'NONE',  ( 7.681258945454893382E-14, 2.049999999999993161, 22.00000000000000000 ) ) ;
#41 = DIRECTION ( 'NONE',  ( 0.0000000000000000000, 1.000000000000000000, 0.0000000000000000000 ) ) ;
#42 = DIRECTION ( 'NONE',  ( 3.491481338843133355E-15, -1.224646799147353207E-16, 1.000000000000000000 ) ) ;
#43 = FACE_OUTER_BOUND ( 'NONE', #120, .T. ) ;
#44 = ADVANCED_FACE ( 'NONE', ( #43 ), #191, .T. ) ;
#45 = DIRECTION ( 'NONE',  ( -3.491481338843133355E-15, 1.224646799147353207E-16, -1.000000000000000000 ) ) ;
#46 = CALENDAR_DATE ( 2021, 15, 10 ) ;
#47 = APPLICATION_PROTOCOL_DEFINITION ( 'international standard', 'config_control_design', 1994, #20 ) ;
#48 = CYLINDRICAL_SURFACE ( 'NONE', #88, 2.049999999999994493 ) ;
#49 = CARTESIAN_POINT ( 'NONE',  ( 1.902857329669507616E-13, -6.674325055353075041E-15, 54.50000000000000000 ) ) ;
#50 =( GEOMETRIC_REPRESENTATION_CONTEXT ( 3 ) GLOBAL_UNCERTAINTY_ASSIGNED_CONTEXT ( ( #180 ) ) GLOBAL_UNIT_ASSIGNED_CONTEXT ( ( #111, #202, #188 ) ) REPRESENTATION_CONTEXT ( 'NONE', 'WORKASPACE' ) );
#51 = DIRECTION ( 'NONE',  ( 3.757912086609253442E-31, 1.000000000000000000, 1.057758217059032306E-16 ) ) ;
#52 = FACE_OUTER_BOUND ( 'NONE', #168, .T. ) ;
#53 = DIRECTION ( 'NONE',  ( -3.491481338843133355E-15, 1.224646799147353207E-16, -1.000000000000000000 ) ) ;
#54 = DIRECTION ( 'NONE',  ( 3.491481338843133355E-15, -1.224646799147353207E-16, 1.000000000000000000 ) ) ;
#55 = PERSON_AND_ORGANIZATION ( #183, #124 ) ;
#56 = APPROVAL_STATUS ( 'not_yet_approved' ) ;
#57 = APPROVAL_PERSON_ORGANIZATION ( #87, #194, #171 ) ;
#58 = APPROVAL_DATE_TIME ( #73, #74 ) ;
#59 = APPROVAL_STATUS ( 'not_yet_approved' ) ;
#60 = PRODUCT ( '42939', '42939', '', ( #142 ) ) ;
#61 = ADVANCED_FACE ( 'NONE', ( #93 ), #148, .F. ) ;
#62 = DIRECTION ( 'NONE',  ( -4.275831445896958607E-31, -1.000000000000000000, -1.224646799147353207E-16 ) ) ;
#63 = VERTEX_POINT ( 'NONE', #133 ) ;
#64 = AXIS2_PLACEMENT_3D ( 'NONE', #5, #147, #26 ) ;
#65 = DIRECTION ( 'NONE',  ( 0.0000000000000000000, 1.000000000000000000, 0.0000000000000000000 ) ) ;
#66 = EDGE_LOOP ( 'NONE', ( #11 ) ) ;
#67 = CC_DESIGN_APPROVAL ( #74, ( #164 ) ) ;
#68 = MANIFOLD_SOLID_BREP ( 'Corps-Déplacer/Copier1[2]', #182 ) ;
#69 = ORIENTED_EDGE ( 'NONE', *, *, #184, .F. ) ;
#70 = COORDINATED_UNIVERSAL_TIME_OFFSET ( 1, 0, .AHEAD. ) ;
#71 = DIRECTION ( 'NONE',  ( 0.0000000000000000000, 0.0000000000000000000, 1.000000000000000000 ) ) ;
#72 = PERSON_AND_ORGANIZATION_ROLE ( 'design_supplier' ) ;
#73 = DATE_AND_TIME ( #172, #130 ) ;
#74 = APPROVAL ( #15, 'UNSPECIFIED' ) ;
#75 = DATE_TIME_ROLE ( 'classification_date' ) ;
#76 = CALENDAR_DATE ( 2021, 15, 10 ) ;
#77 = VERTEX_POINT ( 'NONE', #40 ) ;
#78 = CC_DESIGN_PERSON_AND_ORGANIZATION_ASSIGNMENT ( #35, #36, ( #164 ) ) ;
#79 = AXIS2_PLACEMENT_3D ( 'NONE', #178, #96, #150 ) ;
#80 = DIRECTION ( 'NONE',  ( 4.275831445896958607E-31, 1.000000000000000000, 1.224646799147353207E-16 ) ) ;
#81 = DIRECTION ( 'NONE',  ( -3.491481338843133355E-15, 1.224646799147353207E-16, -1.000000000000000000 ) ) ;
#82 = FACE_OUTER_BOUND ( 'NONE', #197, .T. ) ;
#83 = EDGE_LOOP ( 'NONE', ( #181 ) ) ;
#84 = EDGE_LOOP ( 'NONE', ( #138 ) ) ;
#85 = CC_DESIGN_SECURITY_CLASSIFICATION ( #125, ( #164 ) ) ;
#86 = ORIENTED_EDGE ( 'NONE', *, *, #184, .T. ) ;
#87 = PERSON_AND_ORGANIZATION ( #183, #124 ) ;
#88 = AXIS2_PLACEMENT_3D ( 'NONE', #166, #131, #132 ) ;
#89 = CALENDAR_DATE ( 2021, 15, 10 ) ;
#90 = CONICAL_SURFACE ( 'NONE', #137, 2.049999999999993161, 1.221730476396026388 ) ;
#91 = COORDINATED_UNIVERSAL_TIME_OFFSET ( 1, 0, .AHEAD. ) ;
#92 = VERTEX_POINT ( 'NONE', #162 ) ;
#93 = FACE_OUTER_BOUND ( 'NONE', #8, .T. ) ;
#94 = AXIS2_PLACEMENT_3D ( 'NONE', #192, #163, #97 ) ;
#95 = CC_DESIGN_PERSON_AND_ORGANIZATION_ASSIGNMENT ( #174, #16, ( #60 ) ) ;
#96 = DIRECTION ( 'NONE',  ( -3.491481338843133355E-15, 1.224646799147353207E-16, -1.000000000000000000 ) ) ;
#97 = DIRECTION ( 'NONE',  ( -4.275831445896958607E-31, -1.000000000000000000, -1.224646799147353207E-16 ) ) ;
#98 = DESIGN_CONTEXT ( 'detailed design', #112, 'design' ) ;
#99 = CIRCLE ( 'NONE', #79, 2.049999999999995826 ) ;
#100 = DIRECTION ( 'NONE',  ( 4.275831445896958607E-31, 1.000000000000000000, 1.224646799147353207E-16 ) ) ;
#101 = ORIENTED_EDGE ( 'NONE', *, *, #179, .T. ) ;
#102 = ADVANCED_FACE ( 'NONE', ( #82, #167 ), #48, .T. ) ;
#103 = DIRECTION ( 'NONE',  ( 0.0000000000000000000, 1.000000000000000000, 0.0000000000000000000 ) ) ;
#104 = CC_DESIGN_APPROVAL ( #145, ( #125 ) ) ;
#105 = EDGE_LOOP ( 'NONE', ( #153 ) ) ;
#106 = CC_DESIGN_PERSON_AND_ORGANIZATION_ASSIGNMENT ( #107, #157, ( #113 ) ) ;
#107 = PERSON_AND_ORGANIZATION ( #183, #124 ) ;
#108 = CALENDAR_DATE ( 2021, 15, 10 ) ;
#109 = PERSON_AND_ORGANIZATION ( #183, #124 ) ;
#110 = DIRECTION ( 'NONE',  ( -3.491481338843133355E-15, 1.224646799147353207E-16, -1.000000000000000000 ) ) ;
#111 =( LENGTH_UNIT ( ) NAMED_UNIT ( * ) SI_UNIT ( .MILLI., .METRE. ) );
#112 = APPLICATION_CONTEXT ( 'configuration controlled 3d designs of mechanical parts and assemblies' ) ;
#113 = PRODUCT_DEFINITION ( 'UNKNOWN', '', #164, #98 ) ;
#114 = FACE_OUTER_BOUND ( 'NONE', #28, .T. ) ;
#115 = PLANE ( 'NONE',  #170 ) ;
#116 = CIRCLE ( 'NONE', #119, 2.049999999999995826 ) ;
#117 = EDGE_CURVE ( 'NONE', #63, #63, #3, .T. ) ;
#118 = CARTESIAN_POINT ( 'NONE',  ( 1.920314736363723472E-13, -6.735557395310442615E-15, 55.00000000000000000 ) ) ;
#119 = AXIS2_PLACEMENT_3D ( 'NONE', #19, #7, #65 ) ;
#120 = EDGE_LOOP ( 'NONE', ( #195 ) ) ;
#121 = DATE_AND_TIME ( #89, #177 ) ;
#122 = FACE_OUTER_BOUND ( 'NONE', #105, .T. ) ;
#123 = CARTESIAN_POINT ( 'NONE',  ( 0.0000000000000000000, 0.0000000000000000000, 0.0000000000000000000 ) ) ;
#124 = ORGANIZATION ( 'UNSPECIFIED', 'UNSPECIFIED', '' ) ;
#125 = SECURITY_CLASSIFICATION ( '', '', #13 ) ;
#126 = COORDINATED_UNIVERSAL_TIME_OFFSET ( 1, 0, .AHEAD. ) ;
#127 = PRODUCT_DEFINITION_SHAPE ( 'NONE', 'NONE',  #113 ) ;
#128 = DIRECTION ( 'NONE',  ( 1.000000000000000000, 0.0000000000000000000, 0.0000000000000000000 ) ) ;
#129 = APPROVAL_DATE_TIME ( #2, #194 ) ;
#130 = LOCAL_TIME ( 15, 34, 52.00000000000000000, #201 ) ;
#131 = DIRECTION ( 'NONE',  ( -3.491481338843133355E-15, 1.224646799147353207E-16, -1.000000000000000000 ) ) ;
#132 = DIRECTION ( 'NONE',  ( 4.275831445896958607E-31, 1.000000000000000000, 1.224646799147353207E-16 ) ) ;
#133 = CARTESIAN_POINT ( 'NONE',  ( 2.605130325711385823E-15, 2.049999999999993161, 0.7461389802457225606 ) ) ;
#134 = AXIS2_PLACEMENT_3D ( 'NONE', #118, #53, #103 ) ;
#135 = DIRECTION ( 'NONE',  ( -3.491481338843133355E-15, 1.224646799147353207E-16, -1.000000000000000000 ) ) ;
#136 = CARTESIAN_POINT ( 'NONE',  ( 1.920314736363723472E-13, 1.162313831562929656E-32, 55.00000000000000000 ) ) ;
#137 = AXIS2_PLACEMENT_3D ( 'NONE', #39, #54, #186 ) ;
#138 = ORIENTED_EDGE ( 'NONE', *, *, #198, .T. ) ;
#139 = ADVANCED_FACE ( 'NONE', ( #114, #22 ), #149, .T. ) ;
#140 = AXIS2_PLACEMENT_3D ( 'NONE', #25, #42, #62 ) ;
#141 = APPROVAL_DATE_TIME ( #121, #145 ) ;
#142 = MECHANICAL_CONTEXT ( 'NONE', #20, 'mechanical' ) ;
#143 = AXIS2_PLACEMENT_3D ( 'NONE', #175, #135, #80 ) ;
#144 = MANIFOLD_SOLID_BREP ( 'Corps-Déplacer/Copier1[1]', #27 ) ;
#145 = APPROVAL ( #56, 'UNSPECIFIED' ) ;
#146 = VERTEX_POINT ( 'NONE', #4 ) ;
#147 = DIRECTION ( 'NONE',  ( -3.491481338843133355E-15, 1.224646799147353207E-16, -1.000000000000000000 ) ) ;
#148 = PLANE ( 'NONE',  #140 ) ;
#149 = CYLINDRICAL_SURFACE ( 'NONE', #143, 2.049999999999998046 ) ;
#150 = DIRECTION ( 'NONE',  ( 0.0000000000000000000, 1.000000000000000000, 0.0000000000000000000 ) ) ;
#151 = APPROVAL_PERSON_ORGANIZATION ( #109, #145, #173 ) ;
#152 = ORIENTED_EDGE ( 'NONE', *, *, #29, .F. ) ;
#153 = ORIENTED_EDGE ( 'NONE', *, *, #198, .F. ) ;
#154 = CC_DESIGN_PERSON_AND_ORGANIZATION_ASSIGNMENT ( #33, #203, ( #125 ) ) ;
#155 = DATE_TIME_ROLE ( 'creation_date' ) ;
#156 = CIRCLE ( 'NONE', #37, 2.049999999999999822 ) ;
#157 = PERSON_AND_ORGANIZATION_ROLE ( 'creator' ) ;
#158 = APPROVAL_ROLE ( '' ) ;
#159 = DATE_AND_TIME ( #108, #9 ) ;
#160 = CONICAL_SURFACE ( 'NONE', #64, 1.550000000000000044, 0.7853981633974476129 ) ;
#161 = SHAPE_DEFINITION_REPRESENTATION ( #127, #199 ) ;
#162 = CARTESIAN_POINT ( 'NONE',  ( 7.681258945454893382E-14, 2.049999999999993161, 22.00000000000000000 ) ) ;
#163 = DIRECTION ( 'NONE',  ( 3.491481338843133355E-15, -1.224646799147353207E-16, 1.000000000000000000 ) ) ;
#164 = PRODUCT_DEFINITION_FORMATION_WITH_SPECIFIED_SOURCE ( 'ANY', '', #60, .NOT_KNOWN. ) ;
#165 = VERTEX_POINT ( 'NONE', #24 ) ;
#166 = CARTESIAN_POINT ( 'NONE',  ( 0.0000000000000000000, 0.0000000000000000000, 0.0000000000000000000 ) ) ;
#167 = FACE_OUTER_BOUND ( 'NONE', #30, .T. ) ;
#168 = EDGE_LOOP ( 'NONE', ( #152 ) ) ;
#169 = ORIENTED_EDGE ( 'NONE', *, *, #117, .F. ) ;
#170 = AXIS2_PLACEMENT_3D ( 'NONE', #136, #45, #100 ) ;
#171 = APPROVAL_ROLE ( '' ) ;
#172 = CALENDAR_DATE ( 2021, 15, 10 ) ;
#173 = APPROVAL_ROLE ( '' ) ;
#174 = PERSON_AND_ORGANIZATION ( #183, #124 ) ;
#175 = CARTESIAN_POINT ( 'NONE',  ( 0.0000000000000000000, 0.0000000000000000000, 0.0000000000000000000 ) ) ;
#176 = CARTESIAN_POINT ( 'NONE',  ( 2.605130325711385034E-15, -9.137567138769940152E-17, 0.7461389802457223386 ) ) ;
#177 = LOCAL_TIME ( 15, 34, 52.00000000000000000, #126 ) ;
#178 = CARTESIAN_POINT ( 'NONE',  ( 7.681258945454893382E-14, -2.694222958124176809E-15, 22.00000000000000000 ) ) ;
#179 = EDGE_CURVE ( 'NONE', #77, #77, #99, .T. ) ;
#180 = UNCERTAINTY_MEASURE_WITH_UNIT (LENGTH_MEASURE( 1.000000000000000082E-05 ), #111, 'distance_accuracy_value', 'NONE');
#181 = ORIENTED_EDGE ( 'NONE', *, *, #117, .T. ) ;
#182 = CLOSED_SHELL ( 'NONE', ( #34, #102, #44 ) ) ;
#183 = PERSON ( 'UNSPECIFIED', 'UNSPECIFIED', 'UNSPECIFIED', ('UNSPECIFIED'), ('UNSPECIFIED'), ('UNSPECIFIED') ) ;
#184 = EDGE_CURVE ( 'NONE', #92, #92, #116, .T. ) ;
#185 = DATE_AND_TIME ( #46, #1 ) ;
#186 = DIRECTION ( 'NONE',  ( -3.757912086609253442E-31, -1.000000000000000000, -1.057758217059032306E-16 ) ) ;
#187 = COORDINATED_UNIVERSAL_TIME_OFFSET ( 1, 0, .AHEAD. ) ;
#188 =( NAMED_UNIT ( * ) SI_UNIT ( $, .STERADIAN. ) SOLID_ANGLE_UNIT ( ) );
#189 = APPLICATION_PROTOCOL_DEFINITION ( 'international standard', 'config_control_design', 1994, #112 ) ;
#190 = CC_DESIGN_PERSON_AND_ORGANIZATION_ASSIGNMENT ( #18, #72, ( #164 ) ) ;
#191 = PLANE ( 'NONE',  #94 ) ;
#192 = CARTESIAN_POINT ( 'NONE',  ( 7.681258945454893382E-14, 1.537253777228396932E-32, 22.00000000000000000 ) ) ;
#193 = AXIS2_PLACEMENT_3D ( 'NONE', #123, #71, #128 ) ;
#194 = APPROVAL ( #59, 'UNSPECIFIED' ) ;
#195 = ORIENTED_EDGE ( 'NONE', *, *, #179, .F. ) ;
#196 = CC_DESIGN_APPROVAL ( #194, ( #113 ) ) ;
#197 = EDGE_LOOP ( 'NONE', ( #169 ) ) ;
#198 = EDGE_CURVE ( 'NONE', #146, #146, #156, .T. ) ;
#199 = ADVANCED_BREP_SHAPE_REPRESENTATION ( '42939', ( #144, #68, #193 ), #50 ) ;
#200 = PRODUCT_RELATED_PRODUCT_CATEGORY ( 'detail', '', ( #60 ) ) ;
#201 = COORDINATED_UNIVERSAL_TIME_OFFSET ( 1, 0, .AHEAD. ) ;
#202 =( NAMED_UNIT ( * ) PLANE_ANGLE_UNIT ( ) SI_UNIT ( $, .RADIAN. ) );
#203 = PERSON_AND_ORGANIZATION_ROLE ( 'classification_officer' ) ;
ENDSEC;
END-ISO-10303-21;
