ISO-10303-21;
HEADER;
FILE_DESCRIPTION (( 'STEP AP203' ),
    '1' );
FILE_NAME ('42906.step',
    '2021-11-15T14:31:30',
    ( '' ),
    ( '' ),
    'SwSTEP 2.0',
    'SolidWorks 2019',
    '' );
FILE_SCHEMA (( 'CONFIG_CONTROL_DESIGN' ));
ENDSEC;

DATA;
#1 = CALENDAR_DATE ( 2021, 15, 11 ) ;
#2 = ORIENTED_EDGE ( 'NONE', *, *, #6, .T. ) ;
#3 = CIRCLE ( 'NONE', #16, 3.999999999999991562 ) ;
#4 = PRODUCT_DEFINITION_FORMATION_WITH_SPECIFIED_SOURCE ( 'ANY', '', #58, .NOT_KNOWN. ) ;
#5 = CARTESIAN_POINT ( 'NONE',  ( 6.633814543801950851E-14, 3.999999999999988898, 18.99999999999999645 ) ) ;
#6 = EDGE_CURVE ( 'NONE', #143, #143, #190, .T. ) ;
#7 = FACE_OUTER_BOUND ( 'NONE', #63, .T. ) ;
#8 = DIRECTION ( 'NONE',  ( 4.275831445896958607E-31, 1.000000000000000000, 1.224646799147353207E-16 ) ) ;
#9 = FACE_OUTER_BOUND ( 'NONE', #33, .T. ) ;
#10 = CC_DESIGN_PERSON_AND_ORGANIZATION_ASSIGNMENT ( #127, #194, ( #58 ) ) ;
#11 = ADVANCED_FACE ( 'NONE', ( #185 ), #131, .T. ) ;
#12 = PERSON_AND_ORGANIZATION_ROLE ( 'creator' ) ;
#13 = LOCAL_TIME ( 15, 31, 30.00000000000000000, #48 ) ;
#14 = DATE_TIME_ROLE ( 'creation_date' ) ;
#15 = DATE_AND_TIME ( #162, #71 ) ;
#16 = AXIS2_PLACEMENT_3D ( 'NONE', #196, #39, #86 ) ;
#17 = APPROVAL_PERSON_ORGANIZATION ( #134, #100, #178 ) ;
#18 = CC_DESIGN_DATE_AND_TIME_ASSIGNMENT ( #161, #14, ( #97 ) ) ;
#19 = CALENDAR_DATE ( 2021, 15, 11 ) ;
#20 = CIRCLE ( 'NONE', #154, 3.499999999999996003 ) ;
#21 = CC_DESIGN_APPROVAL ( #195, ( #97 ) ) ;
#22 = DIRECTION ( 'NONE',  ( 0.0000000000000000000, 1.000000000000000000, 0.0000000000000000000 ) ) ;
#23 = CC_DESIGN_APPROVAL ( #100, ( #163 ) ) ;
#24 = ADVANCED_FACE ( 'NONE', ( #7, #152 ), #177, .T. ) ;
#25 = CARTESIAN_POINT ( 'NONE',  ( 6.633814543801950851E-14, 2.999519565323705910E-32, 18.99999999999999645 ) ) ;
#26 = APPLICATION_CONTEXT ( 'configuration controlled 3d designs of mechanical parts and assemblies' ) ;
#27 = FACE_OUTER_BOUND ( 'NONE', #114, .T. ) ;
#28 = CC_DESIGN_APPROVAL ( #36, ( #4 ) ) ;
#29 = CLOSED_SHELL ( 'NONE', ( #65, #81, #24, #67 ) ) ;
#30 = DIRECTION ( 'NONE',  ( -3.491481338843133355E-15, 1.224646799147353207E-16, -1.000000000000000000 ) ) ;
#31 = PERSON_AND_ORGANIZATION ( #183, #193 ) ;
#32 = PRODUCT_RELATED_PRODUCT_CATEGORY ( 'detail', '', ( #58 ) ) ;
#33 = EDGE_LOOP ( 'NONE', ( #113 ) ) ;
#34 = EDGE_LOOP ( 'NONE', ( #189 ) ) ;
#35 = COORDINATED_UNIVERSAL_TIME_OFFSET ( 1, 0, .AHEAD. ) ;
#36 = APPROVAL ( #94, 'UNSPECIFIED' ) ;
#37 = MECHANICAL_CONTEXT ( 'NONE', #26, 'mechanical' ) ;
#38 = LOCAL_TIME ( 15, 31, 30.00000000000000000, #122 ) ;
#39 = DIRECTION ( 'NONE',  ( -3.491481338843133355E-15, 1.224646799147353207E-16, -1.000000000000000000 ) ) ;
#40 = PLANE ( 'NONE',  #184 ) ;
#41 = CC_DESIGN_PERSON_AND_ORGANIZATION_ASSIGNMENT ( #31, #174, ( #97 ) ) ;
#42 = ORIENTED_EDGE ( 'NONE', *, *, #182, .T. ) ;
#43 = PERSON_AND_ORGANIZATION_ROLE ( 'design_supplier' ) ;
#44 = CARTESIAN_POINT ( 'NONE',  ( 2.199633243471174140E-13, -7.715274834628325378E-15, 63.00000000000000000 ) ) ;
#45 = APPROVAL_DATE_TIME ( #15, #195 ) ;
#46 = DATE_AND_TIME ( #175, #13 ) ;
#47 = VERTEX_POINT ( 'NONE', #187 ) ;
#48 = COORDINATED_UNIVERSAL_TIME_OFFSET ( 1, 0, .AHEAD. ) ;
#49 = EDGE_CURVE ( 'NONE', #146, #146, #20, .T. ) ;
#50 = EDGE_LOOP ( 'NONE', ( #78 ) ) ;
#51 = APPLICATION_PROTOCOL_DEFINITION ( 'international standard', 'config_control_design', 1994, #26 ) ;
#52 = CC_DESIGN_PERSON_AND_ORGANIZATION_ASSIGNMENT ( #176, #12, ( #4 ) ) ;
#53 = APPROVAL_PERSON_ORGANIZATION ( #77, #36, #158 ) ;
#54 = DIRECTION ( 'NONE',  ( 4.275831445896959482E-31, 1.000000000000000000, 1.224646799147353207E-16 ) ) ;
#55 = DIRECTION ( 'NONE',  ( -4.275831445896958607E-31, -1.000000000000000000, -1.224646799147353207E-16 ) ) ;
#56 = AXIS2_PLACEMENT_3D ( 'NONE', #59, #172, #110 ) ;
#57 = FACE_OUTER_BOUND ( 'NONE', #157, .T. ) ;
#58 = PRODUCT ( '42906', '42906', '', ( #37 ) ) ;
#59 = CARTESIAN_POINT ( 'NONE',  ( 0.0000000000000000000, 0.0000000000000000000, 0.0000000000000000000 ) ) ;
#60 = CALENDAR_DATE ( 2021, 15, 11 ) ;
#61 = CC_DESIGN_PERSON_AND_ORGANIZATION_ASSIGNMENT ( #156, #91, ( #163 ) ) ;
#62 = DATE_AND_TIME ( #1, #118 ) ;
#63 = EDGE_LOOP ( 'NONE', ( #179 ) ) ;
#64 = CLOSED_SHELL ( 'NONE', ( #79, #72, #11 ) ) ;
#65 = ADVANCED_FACE ( 'NONE', ( #201 ), #40, .F. ) ;
#66 = DIRECTION ( 'NONE',  ( 3.491481338843133355E-15, -1.224646799147353207E-16, 1.000000000000000000 ) ) ;
#67 = ADVANCED_FACE ( 'NONE', ( #132 ), #85, .F. ) ;
#68 = DIRECTION ( 'NONE',  ( -3.491481338843133355E-15, 1.224646799147353207E-16, -1.000000000000000000 ) ) ;
#69 = DIRECTION ( 'NONE',  ( 0.0000000000000000000, 1.000000000000000000, 0.0000000000000000000 ) ) ;
#70 = AXIS2_PLACEMENT_3D ( 'NONE', #150, #68, #135 ) ;
#71 = LOCAL_TIME ( 15, 31, 30.00000000000000000, #35 ) ;
#72 = ADVANCED_FACE ( 'NONE', ( #186, #27 ), #87, .T. ) ;
#73 = CC_DESIGN_SECURITY_CLASSIFICATION ( #163, ( #4 ) ) ;
#74 =( LENGTH_UNIT ( ) NAMED_UNIT ( * ) SI_UNIT ( .MILLI., .METRE. ) );
#75 = PERSON_AND_ORGANIZATION ( #183, #193 ) ;
#76 = EDGE_LOOP ( 'NONE', ( #96 ) ) ;
#77 = PERSON_AND_ORGANIZATION ( #183, #193 ) ;
#78 = ORIENTED_EDGE ( 'NONE', *, *, #182, .F. ) ;
#79 = ADVANCED_FACE ( 'NONE', ( #155 ), #108, .F. ) ;
#80 = PRODUCT_DEFINITION_SHAPE ( 'NONE', 'NONE',  #97 ) ;
#81 = ADVANCED_FACE ( 'NONE', ( #57, #9 ), #121, .T. ) ;
#82 = ADVANCED_BREP_SHAPE_REPRESENTATION ( '42906', ( #111, #115, #180 ), #137 ) ;
#83 = AXIS2_PLACEMENT_3D ( 'NONE', #44, #30, #69 ) ;
#84 = APPROVAL_PERSON_ORGANIZATION ( #101, #195, #144 ) ;
#85 = PLANE ( 'NONE',  #95 ) ;
#86 = DIRECTION ( 'NONE',  ( 0.0000000000000000000, 1.000000000000000000, 0.0000000000000000000 ) ) ;
#87 = CYLINDRICAL_SURFACE ( 'NONE', #70, 3.999999999999989786 ) ;
#88 = CARTESIAN_POINT ( 'NONE',  ( 2.199633243471174140E-13, -7.715274834628325378E-15, 63.00000000000000000 ) ) ;
#89 = VERTEX_POINT ( 'NONE', #153 ) ;
#90 = DESIGN_CONTEXT ( 'detailed design', #164, 'design' ) ;
#91 = PERSON_AND_ORGANIZATION_ROLE ( 'classification_officer' ) ;
#92 = AXIS2_PLACEMENT_3D ( 'NONE', #149, #145, #54 ) ;
#93 = COORDINATED_UNIVERSAL_TIME_OFFSET ( 1, 0, .AHEAD. ) ;
#94 = APPROVAL_STATUS ( 'not_yet_approved' ) ;
#95 = AXIS2_PLACEMENT_3D ( 'NONE', #198, #148, #8 ) ;
#96 = ORIENTED_EDGE ( 'NONE', *, *, #173, .T. ) ;
#97 = PRODUCT_DEFINITION ( 'UNKNOWN', '', #4, #90 ) ;
#98 = COORDINATED_UNIVERSAL_TIME_OFFSET ( 1, 0, .AHEAD. ) ;
#99 = CARTESIAN_POINT ( 'NONE',  ( 0.0000000000000000000, 0.0000000000000000000, 0.0000000000000000000 ) ) ;
#100 = APPROVAL ( #142, 'UNSPECIFIED' ) ;
#101 = PERSON_AND_ORGANIZATION ( #183, #193 ) ;
#102 = EDGE_LOOP ( 'NONE', ( #124 ) ) ;
#103 = DIRECTION ( 'NONE',  ( -4.275831445896958607E-31, -1.000000000000000000, -1.224646799147353207E-16 ) ) ;
#104 = CARTESIAN_POINT ( 'NONE',  ( 6.633814543801950851E-14, 2.999519565323705910E-32, 18.99999999999999645 ) ) ;
#105 = CARTESIAN_POINT ( 'NONE',  ( 6.633814543801950851E-14, -2.326828918379970576E-15, 18.99999999999999645 ) ) ;
#106 = SECURITY_CLASSIFICATION_LEVEL ( 'unclassified' ) ;
#107 = CARTESIAN_POINT ( 'NONE',  ( 2.199633243471174140E-13, 3.499999999999988454, 63.00000000000000000 ) ) ;
#108 = PLANE ( 'NONE',  #166 ) ;
#109 =( NAMED_UNIT ( * ) SI_UNIT ( $, .STERADIAN. ) SOLID_ANGLE_UNIT ( ) );
#110 = DIRECTION ( 'NONE',  ( 4.275831445896958607E-31, 1.000000000000000000, 1.224646799147353207E-16 ) ) ;
#111 = MANIFOLD_SOLID_BREP ( 'Corps-Déplacer/Copier1[1]', #29 ) ;
#112 = APPROVAL_DATE_TIME ( #62, #36 ) ;
#113 = ORIENTED_EDGE ( 'NONE', *, *, #191, .T. ) ;
#114 = EDGE_LOOP ( 'NONE', ( #2 ) ) ;
#115 = MANIFOLD_SOLID_BREP ( 'Corps-Déplacer/Copier1[2]', #64 ) ;
#116 = AXIS2_PLACEMENT_3D ( 'NONE', #167, #188, #22 ) ;
#117 = APPLICATION_PROTOCOL_DEFINITION ( 'international standard', 'config_control_design', 1994, #164 ) ;
#118 = LOCAL_TIME ( 15, 31, 30.00000000000000000, #93 ) ;
#119 = DIRECTION ( 'NONE',  ( -3.491481338843133355E-15, 1.224646799147353207E-16, -1.000000000000000000 ) ) ;
#120 = DIRECTION ( 'NONE',  ( 0.0000000000000000000, 1.000000000000000000, 0.0000000000000000000 ) ) ;
#121 = CYLINDRICAL_SURFACE ( 'NONE', #56, 3.999999999999994227 ) ;
#122 = COORDINATED_UNIVERSAL_TIME_OFFSET ( 1, 0, .AHEAD. ) ;
#123 = CIRCLE ( 'NONE', #92, 3.999999999999988898 ) ;
#124 = ORIENTED_EDGE ( 'NONE', *, *, #6, .F. ) ;
#125 = CC_DESIGN_DATE_AND_TIME_ASSIGNMENT ( #46, #170, ( #163 ) ) ;
#126 = DIRECTION ( 'NONE',  ( 1.000000000000000000, 0.0000000000000000000, 0.0000000000000000000 ) ) ;
#127 = PERSON_AND_ORGANIZATION ( #183, #193 ) ;
#128 = AXIS2_PLACEMENT_3D ( 'NONE', #105, #169, #168 ) ;
#129 = DATE_AND_TIME ( #19, #202 ) ;
#130 = DIRECTION ( 'NONE',  ( -4.275831445896958607E-31, -1.000000000000000000, -1.224646799147353207E-16 ) ) ;
#131 = PLANE ( 'NONE',  #200 ) ;
#132 = FACE_OUTER_BOUND ( 'NONE', #136, .T. ) ;
#133 = DIRECTION ( 'NONE',  ( 3.491481338843133355E-15, -1.224646799147353207E-16, 1.000000000000000000 ) ) ;
#134 = PERSON_AND_ORGANIZATION ( #183, #193 ) ;
#135 = DIRECTION ( 'NONE',  ( 4.275831445896958607E-31, 1.000000000000000000, 1.224646799147353207E-16 ) ) ;
#136 = EDGE_LOOP ( 'NONE', ( #138 ) ) ;
#137 =( GEOMETRIC_REPRESENTATION_CONTEXT ( 3 ) GLOBAL_UNCERTAINTY_ASSIGNED_CONTEXT ( ( #171 ) ) GLOBAL_UNIT_ASSIGNED_CONTEXT ( ( #74, #151, #109 ) ) REPRESENTATION_CONTEXT ( 'NONE', 'WORKASPACE' ) );
#138 = ORIENTED_EDGE ( 'NONE', *, *, #49, .F. ) ;
#139 = APPROVAL_DATE_TIME ( #129, #100 ) ;
#140 = ORIENTED_EDGE ( 'NONE', *, *, #173, .F. ) ;
#141 = DIRECTION ( 'NONE',  ( 0.0000000000000000000, 0.0000000000000000000, 1.000000000000000000 ) ) ;
#142 = APPROVAL_STATUS ( 'not_yet_approved' ) ;
#143 = VERTEX_POINT ( 'NONE', #5 ) ;
#144 = APPROVAL_ROLE ( '' ) ;
#145 = DIRECTION ( 'NONE',  ( -3.491481338843133355E-15, 1.224646799147353207E-16, -1.000000000000000000 ) ) ;
#146 = VERTEX_POINT ( 'NONE', #107 ) ;
#147 = CC_DESIGN_PERSON_AND_ORGANIZATION_ASSIGNMENT ( #75, #43, ( #4 ) ) ;
#148 = DIRECTION ( 'NONE',  ( -3.491481338843133355E-15, 1.224646799147353207E-16, -1.000000000000000000 ) ) ;
#149 = CARTESIAN_POINT ( 'NONE',  ( -3.420656913661677480E-30, 1.199804934854685931E-31, -9.797150784128427928E-16 ) ) ;
#150 = CARTESIAN_POINT ( 'NONE',  ( 0.0000000000000000000, 0.0000000000000000000, 0.0000000000000000000 ) ) ;
#151 =( NAMED_UNIT ( * ) PLANE_ANGLE_UNIT ( ) SI_UNIT ( $, .RADIAN. ) );
#152 = FACE_BOUND ( 'NONE', #34, .T. ) ;
#153 = CARTESIAN_POINT ( 'NONE',  ( 6.633814543801950851E-14, 3.999999999999988898, 18.99999999999999645 ) ) ;
#154 = AXIS2_PLACEMENT_3D ( 'NONE', #88, #119, #120 ) ;
#155 = FACE_OUTER_BOUND ( 'NONE', #159, .T. ) ;
#156 = PERSON_AND_ORGANIZATION ( #183, #193 ) ;
#157 = EDGE_LOOP ( 'NONE', ( #140 ) ) ;
#158 = APPROVAL_ROLE ( '' ) ;
#159 = EDGE_LOOP ( 'NONE', ( #42 ) ) ;
#160 = CIRCLE ( 'NONE', #116, 3.999999999999996447 ) ;
#161 = DATE_AND_TIME ( #60, #38 ) ;
#162 = CALENDAR_DATE ( 2021, 15, 11 ) ;
#163 = SECURITY_CLASSIFICATION ( '', '', #106 ) ;
#164 = APPLICATION_CONTEXT ( 'configuration controlled 3d designs of mechanical parts and assemblies' ) ;
#165 = APPROVAL_STATUS ( 'not_yet_approved' ) ;
#166 = AXIS2_PLACEMENT_3D ( 'NONE', #199, #133, #55 ) ;
#167 = CARTESIAN_POINT ( 'NONE',  ( 2.182175836776958284E-13, -7.654042494670957804E-15, 62.50000000000000000 ) ) ;
#168 = DIRECTION ( 'NONE',  ( 0.0000000000000000000, 1.000000000000000000, 0.0000000000000000000 ) ) ;
#169 = DIRECTION ( 'NONE',  ( -3.491481338843133355E-15, 1.224646799147353207E-16, -1.000000000000000000 ) ) ;
#170 = DATE_TIME_ROLE ( 'classification_date' ) ;
#171 = UNCERTAINTY_MEASURE_WITH_UNIT (LENGTH_MEASURE( 1.000000000000000082E-05 ), #74, 'distance_accuracy_value', 'NONE');
#172 = DIRECTION ( 'NONE',  ( -3.491481338843133355E-15, 1.224646799147353207E-16, -1.000000000000000000 ) ) ;
#173 = EDGE_CURVE ( 'NONE', #89, #89, #3, .T. ) ;
#174 = PERSON_AND_ORGANIZATION_ROLE ( 'creator' ) ;
#175 = CALENDAR_DATE ( 2021, 15, 11 ) ;
#176 = PERSON_AND_ORGANIZATION ( #183, #193 ) ;
#177 = CONICAL_SURFACE ( 'NONE', #83, 3.499999999999996003, 0.7853981633974482790 ) ;
#178 = APPROVAL_ROLE ( '' ) ;
#179 = ORIENTED_EDGE ( 'NONE', *, *, #191, .F. ) ;
#180 = AXIS2_PLACEMENT_3D ( 'NONE', #99, #141, #126 ) ;
#181 = SHAPE_DEFINITION_REPRESENTATION ( #80, #82 ) ;
#182 = EDGE_CURVE ( 'NONE', #47, #47, #123, .T. ) ;
#183 = PERSON ( 'UNSPECIFIED', 'UNSPECIFIED', 'UNSPECIFIED', ('UNSPECIFIED'), ('UNSPECIFIED'), ('UNSPECIFIED') ) ;
#184 = AXIS2_PLACEMENT_3D ( 'NONE', #25, #66, #103 ) ;
#185 = FACE_OUTER_BOUND ( 'NONE', #102, .T. ) ;
#186 = FACE_OUTER_BOUND ( 'NONE', #50, .T. ) ;
#187 = CARTESIAN_POINT ( 'NONE',  ( -1.710324335302898942E-30, 3.999999999999988898, -4.898563587539028905E-16 ) ) ;
#188 = DIRECTION ( 'NONE',  ( -3.491481338843133355E-15, 1.224646799147353207E-16, -1.000000000000000000 ) ) ;
#189 = ORIENTED_EDGE ( 'NONE', *, *, #49, .T. ) ;
#190 = CIRCLE ( 'NONE', #128, 3.999999999999991562 ) ;
#191 = EDGE_CURVE ( 'NONE', #192, #192, #160, .T. ) ;
#192 = VERTEX_POINT ( 'NONE', #203 ) ;
#193 = ORGANIZATION ( 'UNSPECIFIED', 'UNSPECIFIED', '' ) ;
#194 = PERSON_AND_ORGANIZATION_ROLE ( 'design_owner' ) ;
#195 = APPROVAL ( #165, 'UNSPECIFIED' ) ;
#196 = CARTESIAN_POINT ( 'NONE',  ( 6.633814543801950851E-14, -2.326828918379970576E-15, 18.99999999999999645 ) ) ;
#197 = DIRECTION ( 'NONE',  ( 3.491481338843133355E-15, -1.224646799147353207E-16, 1.000000000000000000 ) ) ;
#198 = CARTESIAN_POINT ( 'NONE',  ( 2.199633243471174140E-13, 2.624579619658236034E-32, 63.00000000000000000 ) ) ;
#199 = CARTESIAN_POINT ( 'NONE',  ( -1.710328456830838740E-30, 5.999024674273429657E-32, -4.898575392064213964E-16 ) ) ;
#200 = AXIS2_PLACEMENT_3D ( 'NONE', #104, #197, #130 ) ;
#201 = FACE_OUTER_BOUND ( 'NONE', #76, .T. ) ;
#202 = LOCAL_TIME ( 15, 31, 30.00000000000000000, #98 ) ;
#203 = CARTESIAN_POINT ( 'NONE',  ( 2.182175836776958284E-13, 3.999999999999988898, 62.50000000000000000 ) ) ;
ENDSEC;
END-ISO-10303-21;
