ISO-10303-21;
HEADER;
FILE_DESCRIPTION (( 'STEP AP203' ),
    '1' );
FILE_NAME ('42871.step',
    '2021-09-03T07:22:30',
    ( '' ),
    ( '' ),
    'SwSTEP 2.0',
    'SolidWorks 2019',
    '' );
FILE_SCHEMA (( 'CONFIG_CONTROL_DESIGN' ));
ENDSEC;

DATA;
#1 = CARTESIAN_POINT ( 'NONE',  ( 2.479909768273378960E-16, -2.024999999999997691, -2.479909768273395723E-16 ) ) ;
#2 = EDGE_CURVE ( 'NONE', #154, #185, #252, .T. ) ;
#3 = DIRECTION ( 'NONE',  ( -3.491481338843133355E-15, 1.224646799147353207E-16, -1.000000000000000000 ) ) ;
#4 = DIRECTION ( 'NONE',  ( 4.275831445896958607E-31, 1.000000000000000000, 1.224646799147353207E-16 ) ) ;
#5 = CARTESIAN_POINT ( 'NONE',  ( 1.902857329669507616E-13, 2.024999999999993250, 54.50000000000000000 ) ) ;
#6 = COORDINATED_UNIVERSAL_TIME_OFFSET ( 1, 0, .AHEAD. ) ;
#7 = CARTESIAN_POINT ( 'NONE',  ( 5.935518276033326704E-14, 2.024999999999993250, 17.00000000000000000 ) ) ;
#8 = ORIENTED_EDGE ( 'NONE', *, *, #200, .F. ) ;
#9 = DIRECTION ( 'NONE',  ( -4.275831445896958607E-31, -1.000000000000000000, -1.224646799147353207E-16 ) ) ;
#10 = AXIS2_PLACEMENT_3D ( 'NONE', #13, #84, #143 ) ;
#11 = CARTESIAN_POINT ( 'NONE',  ( 1.902857329669507616E-13, -6.674325055353075041E-15, 54.50000000000000000 ) ) ;
#12 = DIRECTION ( 'NONE',  ( 0.0000000000000000000, 1.000000000000000000, 0.0000000000000000000 ) ) ;
#13 = CARTESIAN_POINT ( 'NONE',  ( 0.0000000000000000000, 0.0000000000000000000, 0.0000000000000000000 ) ) ;
#14 = EDGE_LOOP ( 'NONE', ( #72, #317, #301, #300 ) ) ;
#15 = ADVANCED_FACE ( 'NONE', ( #25 ), #157, .T. ) ;
#16 = LINE ( 'NONE', #120, #50 ) ;
#17 = PRODUCT ( '42871', '42871', '', ( #303 ) ) ;
#18 = DESIGN_CONTEXT ( 'detailed design', #114, 'design' ) ;
#19 = ORIENTED_EDGE ( 'NONE', *, *, #39, .T. ) ;
#20 = PERSON_AND_ORGANIZATION ( #316, #243 ) ;
#21 = ORIENTED_EDGE ( 'NONE', *, *, #28, .F. ) ;
#22 = AXIS2_PLACEMENT_3D ( 'NONE', #287, #76, #89 ) ;
#23 = CALENDAR_DATE ( 2021, 3, 9 ) ;
#24 = CC_DESIGN_PERSON_AND_ORGANIZATION_ASSIGNMENT ( #193, #98, ( #181 ) ) ;
#25 = FACE_OUTER_BOUND ( 'NONE', #14, .T. ) ;
#26 = CARTESIAN_POINT ( 'NONE',  ( 4.496225594952803338E-15, 2.024999999999993250, 1.216742753530819066 ) ) ;
#27 = CARTESIAN_POINT ( 'NONE',  ( 4.496225594952803338E-15, 2.024999999999993250, 1.216742753530819066 ) ) ;
#28 = EDGE_CURVE ( 'NONE', #112, #277, #124, .T. ) ;
#29 = AXIS2_PLACEMENT_3D ( 'NONE', #237, #307, #160 ) ;
#30 = LOCAL_TIME ( 9, 22, 30.00000000000000000, #45 ) ;
#31 = CARTESIAN_POINT ( 'NONE',  ( 4.248234618125464506E-15, -1.490080118497254315E-16, 1.216742753530818844 ) ) ;
#32 = CC_DESIGN_SECURITY_CLASSIFICATION ( #204, ( #181 ) ) ;
#33 = DIRECTION ( 'NONE',  ( 3.491481338843133355E-15, -1.224646799147353207E-16, 1.000000000000000000 ) ) ;
#34 = AXIS2_PLACEMENT_3D ( 'NONE', #31, #3, #221 ) ;
#35 = EDGE_LOOP ( 'NONE', ( #281, #19, #94, #144 ) ) ;
#36 = PRODUCT_DEFINITION_SHAPE ( 'NONE', 'NONE',  #134 ) ;
#37 = DIRECTION ( 'NONE',  ( -3.491481338843133355E-15, 1.224646799147353207E-16, -1.000000000000000000 ) ) ;
#38 = APPLICATION_CONTEXT ( 'configuration controlled 3d designs of mechanical parts and assemblies' ) ;
#39 = EDGE_CURVE ( 'NONE', #159, #154, #241, .T. ) ;
#40 = DIRECTION ( 'NONE',  ( 4.275831445896958607E-31, 1.000000000000000000, 1.224646799147353207E-16 ) ) ;
#41 = EDGE_LOOP ( 'NONE', ( #328, #253 ) ) ;
#42 = APPLICATION_PROTOCOL_DEFINITION ( 'international standard', 'config_control_design', 1994, #38 ) ;
#43 = AXIS2_PLACEMENT_3D ( 'NONE', #63, #256, #4 ) ;
#44 = ORIENTED_EDGE ( 'NONE', *, *, #166, .F. ) ;
#45 = COORDINATED_UNIVERSAL_TIME_OFFSET ( 1, 0, .AHEAD. ) ;
#46 = COORDINATED_UNIVERSAL_TIME_OFFSET ( 1, 0, .AHEAD. ) ;
#47 = APPLICATION_PROTOCOL_DEFINITION ( 'international standard', 'config_control_design', 1994, #114 ) ;
#48 = SECURITY_CLASSIFICATION_LEVEL ( 'unclassified' ) ;
#49 = CC_DESIGN_DATE_AND_TIME_ASSIGNMENT ( #319, #83, ( #134 ) ) ;
#50 = VECTOR ( 'NONE', #121, 1000.000000000000000 ) ;
#51 = PERSON_AND_ORGANIZATION ( #316, #243 ) ;
#52 = MANIFOLD_SOLID_BREP ( 'Corps-Déplacer/Copier1[2]', #235 ) ;
#53 = DIRECTION ( 'NONE',  ( -3.491481338843133355E-15, 1.224646799147353207E-16, -1.000000000000000000 ) ) ;
#54 = ORIENTED_EDGE ( 'NONE', *, *, #305, .F. ) ;
#55 = CLOSED_SHELL ( 'NONE', ( #220, #312, #190, #249, #175, #142 ) ) ;
#56 = DIRECTION ( 'NONE',  ( -3.491481338843133355E-15, 1.224646799147353207E-16, -1.000000000000000000 ) ) ;
#57 = APPROVAL_DATE_TIME ( #191, #82 ) ;
#58 = LINE ( 'NONE', #164, #216 ) ;
#59 = CYLINDRICAL_SURFACE ( 'NONE', #10, 2.024999999999994582 ) ;
#60 = CONICAL_SURFACE ( 'NONE', #130, 2.024999999999993250, 1.029744258676649649 ) ;
#61 = VECTOR ( 'NONE', #327, 1000.000000000000000 ) ;
#62 = CONICAL_SURFACE ( 'NONE', #102, 2.024999999999993250, 1.029744258676649649 ) ;
#63 = CARTESIAN_POINT ( 'NONE',  ( 1.920314736363723472E-13, 1.143566834279656573E-32, 55.00000000000000000 ) ) ;
#64 = UNCERTAINTY_MEASURE_WITH_UNIT (LENGTH_MEASURE( 1.000000000000000082E-05 ), #288, 'distance_accuracy_value', 'NONE');
#65 = FACE_OUTER_BOUND ( 'NONE', #259, .T. ) ;
#66 = CIRCLE ( 'NONE', #34, 2.024999999999993250 ) ;
#67 = DIRECTION ( 'NONE',  ( -3.491481338843133355E-15, 1.224646799147353207E-16, -1.000000000000000000 ) ) ;
#68 = APPROVAL_ROLE ( '' ) ;
#69 = DIRECTION ( 'NONE',  ( -3.491481338843133355E-15, 1.224646799147353207E-16, -1.000000000000000000 ) ) ;
#70 = APPROVAL ( #127, 'UNSPECIFIED' ) ;
#71 = CARTESIAN_POINT ( 'NONE',  ( 4.248234618125463717E-15, -2.024999999999993250, 1.216742753530818621 ) ) ;
#72 = ORIENTED_EDGE ( 'NONE', *, *, #113, .T. ) ;
#73 = DIRECTION ( 'NONE',  ( -2.382254525458718258E-15, -0.7071067811865469066, -0.7071067811865482389 ) ) ;
#74 = APPROVAL_ROLE ( '' ) ;
#75 = DIRECTION ( 'NONE',  ( -3.491481338843133355E-15, 1.224646799147353207E-16, -1.000000000000000000 ) ) ;
#76 = DIRECTION ( 'NONE',  ( -3.491481338843133355E-15, 1.224646799147353207E-16, -1.000000000000000000 ) ) ;
#77 = PERSON_AND_ORGANIZATION_ROLE ( 'creator' ) ;
#78 = PLANE ( 'NONE',  #248 ) ;
#79 = FACE_OUTER_BOUND ( 'NONE', #322, .T. ) ;
#80 =( NAMED_UNIT ( * ) PLANE_ANGLE_UNIT ( ) SI_UNIT ( $, .RADIAN. ) );
#81 = FACE_OUTER_BOUND ( 'NONE', #334, .T. ) ;
#82 = APPROVAL ( #197, 'UNSPECIFIED' ) ;
#83 = DATE_TIME_ROLE ( 'creation_date' ) ;
#84 = DIRECTION ( 'NONE',  ( -3.491481338843133355E-15, 1.224646799147353207E-16, -1.000000000000000000 ) ) ;
#85 = CIRCLE ( 'NONE', #178, 2.024999999999993250 ) ;
#86 = EDGE_CURVE ( 'NONE', #280, #335, #170, .T. ) ;
#87 = AXIS2_PLACEMENT_3D ( 'NONE', #278, #184, #230 ) ;
#88 = CARTESIAN_POINT ( 'NONE',  ( 4.248234618125464506E-15, -1.490080118497254315E-16, 1.216742753530818844 ) ) ;
#89 = DIRECTION ( 'NONE',  ( 0.0000000000000000000, 1.000000000000000000, 0.0000000000000000000 ) ) ;
#90 = ADVANCED_BREP_SHAPE_REPRESENTATION ( '42871', ( #174, #52, #87 ), #152 ) ;
#91 = DIRECTION ( 'NONE',  ( -3.491481338843133355E-15, 1.224646799147353207E-16, -1.000000000000000000 ) ) ;
#92 = CARTESIAN_POINT ( 'NONE',  ( 5.935518276033326704E-14, -2.081899558550500280E-15, 17.00000000000000000 ) ) ;
#93 = AXIS2_PLACEMENT_3D ( 'NONE', #129, #106, #244 ) ;
#94 = ORIENTED_EDGE ( 'NONE', *, *, #110, .F. ) ;
#95 = CARTESIAN_POINT ( 'NONE',  ( 1.920314736363723472E-13, -6.735557395310442615E-15, 55.00000000000000000 ) ) ;
#96 = CARTESIAN_POINT ( 'NONE',  ( 0.0000000000000000000, 0.0000000000000000000, 0.0000000000000000000 ) ) ;
#97 = APPROVAL_DATE_TIME ( #238, #293 ) ;
#98 = PERSON_AND_ORGANIZATION_ROLE ( 'design_supplier' ) ;
#99 = CYLINDRICAL_SURFACE ( 'NONE', #146, 2.024999999999997691 ) ;
#100 = AXIS2_PLACEMENT_3D ( 'NONE', #168, #91, #40 ) ;
#101 = ADVANCED_FACE ( 'NONE', ( #81 ), #62, .T. ) ;
#102 = AXIS2_PLACEMENT_3D ( 'NONE', #133, #107, #165 ) ;
#103 = CARTESIAN_POINT ( 'NONE',  ( 0.0000000000000000000, 0.0000000000000000000, 0.0000000000000000000 ) ) ;
#104 = DATE_AND_TIME ( #234, #30 ) ;
#105 = CARTESIAN_POINT ( 'NONE',  ( 1.250684488404693145E-13, -2.024999999999997691, 17.00000000000000000 ) ) ;
#106 = DIRECTION ( 'NONE',  ( -3.491481338843133355E-15, 1.224646799147353207E-16, -1.000000000000000000 ) ) ;
#107 = DIRECTION ( 'NONE',  ( 3.491481338843133355E-15, -1.224646799147353207E-16, 1.000000000000000000 ) ) ;
#108 = ORIENTED_EDGE ( 'NONE', *, *, #329, .T. ) ;
#109 = PERSON_AND_ORGANIZATION ( #316, #243 ) ;
#110 = EDGE_CURVE ( 'NONE', #286, #154, #111, .T. ) ;
#111 = CIRCLE ( 'NONE', #228, 2.024999999999999911 ) ;
#112 = VERTEX_POINT ( 'NONE', #96 ) ;
#113 = EDGE_CURVE ( 'NONE', #335, #280, #296, .T. ) ;
#114 = APPLICATION_CONTEXT ( 'configuration controlled 3d designs of mechanical parts and assemblies' ) ;
#115 = LINE ( 'NONE', #225, #140 ) ;
#116 = VECTOR ( 'NONE', #53, 1000.000000000000000 ) ;
#117 = CARTESIAN_POINT ( 'NONE',  ( 1.920314736363723472E-13, -6.735557395310442615E-15, 55.00000000000000000 ) ) ;
#118 = ORIENTED_EDGE ( 'NONE', *, *, #305, .T. ) ;
#119 = CC_DESIGN_PERSON_AND_ORGANIZATION_ASSIGNMENT ( #186, #158, ( #17 ) ) ;
#120 = CARTESIAN_POINT ( 'NONE',  ( 1.920314736363723472E-13, 1.524999999999993472, 55.00000000000000000 ) ) ;
#121 = DIRECTION ( 'NONE',  ( -2.468850131082267316E-15, 0.7071067811865471286, -0.7071067811865479058 ) ) ;
#122 = EDGE_CURVE ( 'NONE', #331, #286, #16, .T. ) ;
#123 = DIRECTION ( 'NONE',  ( -3.491481338843133355E-15, 1.224646799147353207E-16, -1.000000000000000000 ) ) ;
#124 = LINE ( 'NONE', #26, #171 ) ;
#125 = DIRECTION ( 'NONE',  ( 4.275831445896958607E-31, 1.000000000000000000, 1.224646799147353207E-16 ) ) ;
#126 = CALENDAR_DATE ( 2021, 3, 9 ) ;
#127 = APPROVAL_STATUS ( 'not_yet_approved' ) ;
#128 = DIRECTION ( 'NONE',  ( 1.903218546456022717E-15, 0.8571673007021097801, 0.5150380749100585964 ) ) ;
#129 = CARTESIAN_POINT ( 'NONE',  ( 1.902857329669507616E-13, -6.674325055353075041E-15, 54.50000000000000000 ) ) ;
#130 = AXIS2_PLACEMENT_3D ( 'NONE', #208, #299, #213 ) ;
#131 = CIRCLE ( 'NONE', #289, 1.525000000000000133 ) ;
#132 = AXIS2_PLACEMENT_3D ( 'NONE', #188, #69, #236 ) ;
#133 = CARTESIAN_POINT ( 'NONE',  ( 4.248234618125464506E-15, -1.490080118497254315E-16, 1.216742753530818844 ) ) ;
#134 = PRODUCT_DEFINITION ( 'UNKNOWN', '', #181, #18 ) ;
#135 = CARTESIAN_POINT ( 'NONE',  ( 5.935518276033326704E-14, 1.518506779945124123E-32, 17.00000000000000000 ) ) ;
#136 = FACE_OUTER_BOUND ( 'NONE', #35, .T. ) ;
#137 = CC_DESIGN_DATE_AND_TIME_ASSIGNMENT ( #215, #275, ( #204 ) ) ;
#138 = ORIENTED_EDGE ( 'NONE', *, *, #161, .F. ) ;
#139 = CONICAL_SURFACE ( 'NONE', #132, 1.525000000000000133, 0.7853981633974476129 ) ;
#140 = VECTOR ( 'NONE', #320, 1000.000000000000000 ) ;
#141 = DIRECTION ( 'NONE',  ( -4.275831445896958607E-31, -1.000000000000000000, -1.224646799147353207E-16 ) ) ;
#142 = ADVANCED_FACE ( 'NONE', ( #202 ), #177, .F. ) ;
#143 = DIRECTION ( 'NONE',  ( 4.275831445896958607E-31, 1.000000000000000000, 1.224646799147353454E-16 ) ) ;
#144 = ORIENTED_EDGE ( 'NONE', *, *, #122, .F. ) ;
#145 =( NAMED_UNIT ( * ) SI_UNIT ( $, .STERADIAN. ) SOLID_ANGLE_UNIT ( ) );
#146 = AXIS2_PLACEMENT_3D ( 'NONE', #103, #67, #125 ) ;
#147 = DIRECTION ( 'NONE',  ( -3.491481338843133355E-15, 1.224646799147353207E-16, -1.000000000000000000 ) ) ;
#148 = ADVANCED_FACE ( 'NONE', ( #222 ), #78, .T. ) ;
#149 = ORIENTED_EDGE ( 'NONE', *, *, #113, .F. ) ;
#150 = ORIENTED_EDGE ( 'NONE', *, *, #2, .F. ) ;
#151 = DIRECTION ( 'NONE',  ( -3.491481338843133355E-15, 1.224646799147353207E-16, -1.000000000000000000 ) ) ;
#152 =( GEOMETRIC_REPRESENTATION_CONTEXT ( 3 ) GLOBAL_UNCERTAINTY_ASSIGNED_CONTEXT ( ( #64 ) ) GLOBAL_UNIT_ASSIGNED_CONTEXT ( ( #288, #80, #145 ) ) REPRESENTATION_CONTEXT ( 'NONE', 'WORKASPACE' ) );
#153 = AXIS2_PLACEMENT_3D ( 'NONE', #92, #276, #273 ) ;
#154 = VERTEX_POINT ( 'NONE', #314 ) ;
#155 = APPROVAL_STATUS ( 'not_yet_approved' ) ;
#156 = CC_DESIGN_APPROVAL ( #82, ( #181 ) ) ;
#157 = CYLINDRICAL_SURFACE ( 'NONE', #192, 2.024999999999994582 ) ;
#158 = PERSON_AND_ORGANIZATION_ROLE ( 'design_owner' ) ;
#159 = VERTEX_POINT ( 'NONE', #195 ) ;
#160 = DIRECTION ( 'NONE',  ( 0.0000000000000000000, 1.000000000000000000, 0.0000000000000000000 ) ) ;
#161 = EDGE_CURVE ( 'NONE', #286, #201, #58, .T. ) ;
#162 = COORDINATED_UNIVERSAL_TIME_OFFSET ( 1, 0, .AHEAD. ) ;
#163 = DIRECTION ( 'NONE',  ( 3.804306062987145065E-31, 1.000000000000000000, 1.070816960479514075E-16 ) ) ;
#164 = CARTESIAN_POINT ( 'NONE',  ( 8.658558677941332026E-31, 2.024999999999997691, 2.479909768273387342E-16 ) ) ;
#165 = DIRECTION ( 'NONE',  ( -3.804306062987145065E-31, -1.000000000000000000, -1.070816960479514075E-16 ) ) ;
#166 = EDGE_CURVE ( 'NONE', #112, #224, #308, .T. ) ;
#167 = APPROVAL_PERSON_ORGANIZATION ( #219, #82, #74 ) ;
#168 = CARTESIAN_POINT ( 'NONE',  ( 0.0000000000000000000, 0.0000000000000000000, 0.0000000000000000000 ) ) ;
#169 = CARTESIAN_POINT ( 'NONE',  ( 5.935518276033326704E-14, -2.081899558550500280E-15, 17.00000000000000000 ) ) ;
#170 = CIRCLE ( 'NONE', #22, 2.024999999999995470 ) ;
#171 = VECTOR ( 'NONE', #128, 999.9999999999998863 ) ;
#172 = ORIENTED_EDGE ( 'NONE', *, *, #206, .T. ) ;
#173 = ORIENTED_EDGE ( 'NONE', *, *, #2, .T. ) ;
#174 = MANIFOLD_SOLID_BREP ( 'Corps-Déplacer/Copier1[1]', #55 ) ;
#175 = ADVANCED_FACE ( 'NONE', ( #180 ), #139, .T. ) ;
#176 = CYLINDRICAL_SURFACE ( 'NONE', #100, 2.024999999999997691 ) ;
#177 = PLANE ( 'NONE',  #43 ) ;
#178 = AXIS2_PLACEMENT_3D ( 'NONE', #88, #56, #163 ) ;
#179 = CONICAL_SURFACE ( 'NONE', #269, 1.525000000000000133, 0.7853981633974476129 ) ;
#180 = FACE_OUTER_BOUND ( 'NONE', #332, .T. ) ;
#181 = PRODUCT_DEFINITION_FORMATION_WITH_SPECIFIED_SOURCE ( 'ANY', '', #17, .NOT_KNOWN. ) ;
#182 = LOCAL_TIME ( 9, 22, 30.00000000000000000, #6 ) ;
#183 = PERSON_AND_ORGANIZATION ( #316, #243 ) ;
#184 = DIRECTION ( 'NONE',  ( 0.0000000000000000000, 0.0000000000000000000, 1.000000000000000000 ) ) ;
#185 = VERTEX_POINT ( 'NONE', #105 ) ;
#186 = PERSON_AND_ORGANIZATION ( #316, #243 ) ;
#187 = LOCAL_TIME ( 9, 22, 30.00000000000000000, #46 ) ;
#188 = CARTESIAN_POINT ( 'NONE',  ( 1.920314736363723472E-13, -6.735557395310442615E-15, 55.00000000000000000 ) ) ;
#189 = CALENDAR_DATE ( 2021, 3, 9 ) ;
#190 = ADVANCED_FACE ( 'NONE', ( #65 ), #285, .F. ) ;
#191 = DATE_AND_TIME ( #189, #182 ) ;
#192 = AXIS2_PLACEMENT_3D ( 'NONE', #218, #263, #265 ) ;
#193 = PERSON_AND_ORGANIZATION ( #316, #243 ) ;
#194 = APPROVAL_PERSON_ORGANIZATION ( #20, #293, #283 ) ;
#195 = CARTESIAN_POINT ( 'NONE',  ( 1.913759781085102212E-13, -1.525000000000006795, 55.00000000000000000 ) ) ;
#196 = ORIENTED_EDGE ( 'NONE', *, *, #267, .T. ) ;
#197 = APPROVAL_STATUS ( 'not_yet_approved' ) ;
#198 = LOCAL_TIME ( 9, 22, 30.00000000000000000, #306 ) ;
#199 = DIRECTION ( 'NONE',  ( -3.491481338843133355E-15, 1.224646799147353207E-16, -1.000000000000000000 ) ) ;
#200 = EDGE_CURVE ( 'NONE', #201, #185, #210, .T. ) ;
#201 = VERTEX_POINT ( 'NONE', #7 ) ;
#202 = FACE_OUTER_BOUND ( 'NONE', #41, .T. ) ;
#203 = AXIS2_PLACEMENT_3D ( 'NONE', #169, #147, #257 ) ;
#204 = SECURITY_CLASSIFICATION ( '', '', #48 ) ;
#205 = ORIENTED_EDGE ( 'NONE', *, *, #254, .T. ) ;
#206 = EDGE_CURVE ( 'NONE', #154, #286, #326, .T. ) ;
#207 = CARTESIAN_POINT ( 'NONE',  ( 5.935518276033326704E-14, 2.024999999999993250, 17.00000000000000000 ) ) ;
#208 = CARTESIAN_POINT ( 'NONE',  ( 4.248234618125464506E-15, -1.490080118497254315E-16, 1.216742753530818844 ) ) ;
#209 = ORIENTED_EDGE ( 'NONE', *, *, #161, .T. ) ;
#210 = CIRCLE ( 'NONE', #290, 2.024999999999995470 ) ;
#211 = CC_DESIGN_APPROVAL ( #293, ( #204 ) ) ;
#212 = APPROVAL_DATE_TIME ( #104, #70 ) ;
#213 = DIRECTION ( 'NONE',  ( -3.804306062987145065E-31, -1.000000000000000000, -1.070816960479514075E-16 ) ) ;
#214 = EDGE_CURVE ( 'NONE', #277, #224, #66, .T. ) ;
#215 = DATE_AND_TIME ( #23, #187 ) ;
#216 = VECTOR ( 'NONE', #199, 1000.000000000000000 ) ;
#217 = ORIENTED_EDGE ( 'NONE', *, *, #86, .T. ) ;
#218 = CARTESIAN_POINT ( 'NONE',  ( 0.0000000000000000000, 0.0000000000000000000, 0.0000000000000000000 ) ) ;
#219 = PERSON_AND_ORGANIZATION ( #316, #243 ) ;
#220 = ADVANCED_FACE ( 'NONE', ( #136 ), #179, .T. ) ;
#221 = DIRECTION ( 'NONE',  ( 3.804306062987145065E-31, 1.000000000000000000, 1.070816960479514075E-16 ) ) ;
#222 = FACE_OUTER_BOUND ( 'NONE', #321, .T. ) ;
#223 = ORIENTED_EDGE ( 'NONE', *, *, #166, .T. ) ;
#224 = VERTEX_POINT ( 'NONE', #233 ) ;
#225 = CARTESIAN_POINT ( 'NONE',  ( 2.479909768273375016E-16, -2.024999999999994582, -2.479909768273392272E-16 ) ) ;
#226 = VECTOR ( 'NONE', #73, 999.9999999999998863 ) ;
#227 = ORIENTED_EDGE ( 'NONE', *, *, #39, .F. ) ;
#228 = AXIS2_PLACEMENT_3D ( 'NONE', #11, #37, #298 ) ;
#229 = CARTESIAN_POINT ( 'NONE',  ( 8.658558677941318013E-31, 2.024999999999994582, 2.479909768273383890E-16 ) ) ;
#230 = DIRECTION ( 'NONE',  ( 1.000000000000000000, 0.0000000000000000000, 0.0000000000000000000 ) ) ;
#231 = SHAPE_DEFINITION_REPRESENTATION ( #36, #90 ) ;
#232 = ORIENTED_EDGE ( 'NONE', *, *, #122, .T. ) ;
#233 = CARTESIAN_POINT ( 'NONE',  ( 4.248234618125463717E-15, -2.024999999999993250, 1.216742753530818621 ) ) ;
#234 = CALENDAR_DATE ( 2021, 3, 9 ) ;
#235 = CLOSED_SHELL ( 'NONE', ( #15, #101, #270, #294, #148 ) ) ;
#236 = DIRECTION ( 'NONE',  ( 0.0000000000000000000, 1.000000000000000000, 0.0000000000000000000 ) ) ;
#237 = CARTESIAN_POINT ( 'NONE',  ( 1.920314736363723472E-13, -6.735557395310442615E-15, 55.00000000000000000 ) ) ;
#238 = DATE_AND_TIME ( #126, #198 ) ;
#239 = EDGE_LOOP ( 'NONE', ( #150, #172, #209, #240 ) ) ;
#240 = ORIENTED_EDGE ( 'NONE', *, *, #267, .F. ) ;
#241 = LINE ( 'NONE', #310, #226 ) ;
#242 = VECTOR ( 'NONE', #330, 1000.000000000000000 ) ;
#243 = ORGANIZATION ( 'UNSPECIFIED', 'UNSPECIFIED', '' ) ;
#244 = DIRECTION ( 'NONE',  ( 0.0000000000000000000, 1.000000000000000000, 0.0000000000000000000 ) ) ;
#245 = ORIENTED_EDGE ( 'NONE', *, *, #200, .T. ) ;
#246 = CARTESIAN_POINT ( 'NONE',  ( 5.935518276033326704E-14, -2.081899558550500280E-15, 17.00000000000000000 ) ) ;
#247 = CC_DESIGN_PERSON_AND_ORGANIZATION_ASSIGNMENT ( #183, #260, ( #204 ) ) ;
#248 = AXIS2_PLACEMENT_3D ( 'NONE', #135, #33, #9 ) ;
#249 = ADVANCED_FACE ( 'NONE', ( #333 ), #99, .T. ) ;
#250 = ORIENTED_EDGE ( 'NONE', *, *, #110, .T. ) ;
#251 = AXIS2_PLACEMENT_3D ( 'NONE', #258, #311, #141 ) ;
#252 = LINE ( 'NONE', #1, #116 ) ;
#253 = ORIENTED_EDGE ( 'NONE', *, *, #254, .F. ) ;
#254 = EDGE_CURVE ( 'NONE', #159, #331, #302, .T. ) ;
#255 = DIRECTION ( 'NONE',  ( 0.0000000000000000000, 1.000000000000000000, 0.0000000000000000000 ) ) ;
#256 = DIRECTION ( 'NONE',  ( -3.491481338843133355E-15, 1.224646799147353207E-16, -1.000000000000000000 ) ) ;
#257 = DIRECTION ( 'NONE',  ( 0.0000000000000000000, 1.000000000000000000, 0.0000000000000000000 ) ) ;
#258 = CARTESIAN_POINT ( 'NONE',  ( 5.935518276033326704E-14, 1.518506779945124123E-32, 17.00000000000000000 ) ) ;
#259 = EDGE_LOOP ( 'NONE', ( #245, #196 ) ) ;
#260 = PERSON_AND_ORGANIZATION_ROLE ( 'classification_officer' ) ;
#261 = ORIENTED_EDGE ( 'NONE', *, *, #214, .T. ) ;
#262 = EDGE_LOOP ( 'NONE', ( #250, #173, #8, #138 ) ) ;
#263 = DIRECTION ( 'NONE',  ( -3.491481338843133355E-15, 1.224646799147353207E-16, -1.000000000000000000 ) ) ;
#264 = PRODUCT_RELATED_PRODUCT_CATEGORY ( 'detail', '', ( #17 ) ) ;
#265 = DIRECTION ( 'NONE',  ( 4.275831445896958607E-31, 1.000000000000000000, 1.224646799147353454E-16 ) ) ;
#266 = CIRCLE ( 'NONE', #153, 2.024999999999995470 ) ;
#267 = EDGE_CURVE ( 'NONE', #185, #201, #266, .T. ) ;
#268 = ORIENTED_EDGE ( 'NONE', *, *, #206, .F. ) ;
#269 = AXIS2_PLACEMENT_3D ( 'NONE', #95, #123, #304 ) ;
#270 = ADVANCED_FACE ( 'NONE', ( #325 ), #60, .T. ) ;
#271 = FACE_OUTER_BOUND ( 'NONE', #262, .T. ) ;
#272 = ORIENTED_EDGE ( 'NONE', *, *, #297, .F. ) ;
#273 = DIRECTION ( 'NONE',  ( 0.0000000000000000000, 1.000000000000000000, 0.0000000000000000000 ) ) ;
#274 = CARTESIAN_POINT ( 'NONE',  ( 1.920314736363723472E-13, 1.524999999999993472, 55.00000000000000000 ) ) ;
#275 = DATE_TIME_ROLE ( 'classification_date' ) ;
#276 = DIRECTION ( 'NONE',  ( -3.491481338843133355E-15, 1.224646799147353207E-16, -1.000000000000000000 ) ) ;
#277 = VERTEX_POINT ( 'NONE', #27 ) ;
#278 = CARTESIAN_POINT ( 'NONE',  ( 0.0000000000000000000, 0.0000000000000000000, 0.0000000000000000000 ) ) ;
#279 = ORIENTED_EDGE ( 'NONE', *, *, #28, .T. ) ;
#280 = VERTEX_POINT ( 'NONE', #336 ) ;
#281 = ORIENTED_EDGE ( 'NONE', *, *, #318, .T. ) ;
#282 = EDGE_LOOP ( 'NONE', ( #21, #223, #118 ) ) ;
#283 = APPROVAL_ROLE ( '' ) ;
#284 = PERSON_AND_ORGANIZATION ( #316, #243 ) ;
#285 = PLANE ( 'NONE',  #251 ) ;
#286 = VERTEX_POINT ( 'NONE', #5 ) ;
#287 = CARTESIAN_POINT ( 'NONE',  ( 5.935518276033326704E-14, -2.081899558550500280E-15, 17.00000000000000000 ) ) ;
#288 =( LENGTH_UNIT ( ) NAMED_UNIT ( * ) SI_UNIT ( .MILLI., .METRE. ) );
#289 = AXIS2_PLACEMENT_3D ( 'NONE', #117, #151, #255 ) ;
#290 = AXIS2_PLACEMENT_3D ( 'NONE', #246, #75, #12 ) ;
#291 = LOCAL_TIME ( 9, 22, 30.00000000000000000, #162 ) ;
#292 = CC_DESIGN_PERSON_AND_ORGANIZATION_ASSIGNMENT ( #51, #77, ( #134 ) ) ;
#293 = APPROVAL ( #155, 'UNSPECIFIED' ) ;
#294 = ADVANCED_FACE ( 'NONE', ( #79 ), #59, .T. ) ;
#295 = ORIENTED_EDGE ( 'NONE', *, *, #86, .F. ) ;
#296 = CIRCLE ( 'NONE', #203, 2.024999999999995470 ) ;
#297 = EDGE_CURVE ( 'NONE', #280, #224, #115, .T. ) ;
#298 = DIRECTION ( 'NONE',  ( 0.0000000000000000000, 1.000000000000000000, 0.0000000000000000000 ) ) ;
#299 = DIRECTION ( 'NONE',  ( 3.491481338843133355E-15, -1.224646799147353207E-16, 1.000000000000000000 ) ) ;
#300 = ORIENTED_EDGE ( 'NONE', *, *, #329, .F. ) ;
#301 = ORIENTED_EDGE ( 'NONE', *, *, #214, .F. ) ;
#302 = CIRCLE ( 'NONE', #29, 1.525000000000000133 ) ;
#303 = MECHANICAL_CONTEXT ( 'NONE', #38, 'mechanical' ) ;
#304 = DIRECTION ( 'NONE',  ( 0.0000000000000000000, 1.000000000000000000, 0.0000000000000000000 ) ) ;
#305 = EDGE_CURVE ( 'NONE', #224, #277, #85, .T. ) ;
#306 = COORDINATED_UNIVERSAL_TIME_OFFSET ( 1, 0, .AHEAD. ) ;
#307 = DIRECTION ( 'NONE',  ( -3.491481338843133355E-15, 1.224646799147353207E-16, -1.000000000000000000 ) ) ;
#308 = LINE ( 'NONE', #71, #242 ) ;
#309 = APPROVAL_PERSON_ORGANIZATION ( #284, #70, #68 ) ;
#310 = CARTESIAN_POINT ( 'NONE',  ( 1.922182322732423113E-13, -1.525000000000006795, 55.00000000000000000 ) ) ;
#311 = DIRECTION ( 'NONE',  ( 3.491481338843133355E-15, -1.224646799147353207E-16, 1.000000000000000000 ) ) ;
#312 = ADVANCED_FACE ( 'NONE', ( #271 ), #176, .T. ) ;
#313 = PERSON_AND_ORGANIZATION_ROLE ( 'creator' ) ;
#314 = CARTESIAN_POINT ( 'NONE',  ( 1.250684488404692135E-13, -2.025000000000006573, 54.50000000000000000 ) ) ;
#315 = CC_DESIGN_APPROVAL ( #70, ( #134 ) ) ;
#316 = PERSON ( 'UNSPECIFIED', 'UNSPECIFIED', 'UNSPECIFIED', ('UNSPECIFIED'), ('UNSPECIFIED'), ('UNSPECIFIED') ) ;
#317 = ORIENTED_EDGE ( 'NONE', *, *, #297, .T. ) ;
#318 = EDGE_CURVE ( 'NONE', #331, #159, #131, .T. ) ;
#319 = DATE_AND_TIME ( #337, #291 ) ;
#320 = DIRECTION ( 'NONE',  ( -3.491481338843133355E-15, 1.224646799147353207E-16, -1.000000000000000000 ) ) ;
#321 = EDGE_LOOP ( 'NONE', ( #149, #295 ) ) ;
#322 = EDGE_LOOP ( 'NONE', ( #272, #217, #108, #54 ) ) ;
#323 = CC_DESIGN_PERSON_AND_ORGANIZATION_ASSIGNMENT ( #109, #313, ( #181 ) ) ;
#324 = LINE ( 'NONE', #229, #61 ) ;
#325 = FACE_OUTER_BOUND ( 'NONE', #282, .T. ) ;
#326 = CIRCLE ( 'NONE', #93, 2.024999999999999911 ) ;
#327 = DIRECTION ( 'NONE',  ( -3.491481338843133355E-15, 1.224646799147353207E-16, -1.000000000000000000 ) ) ;
#328 = ORIENTED_EDGE ( 'NONE', *, *, #318, .F. ) ;
#329 = EDGE_CURVE ( 'NONE', #335, #277, #324, .T. ) ;
#330 = DIRECTION ( 'NONE',  ( 1.798245827342160317E-15, -0.8571673007021098911, 0.5150380749100582634 ) ) ;
#331 = VERTEX_POINT ( 'NONE', #274 ) ;
#332 = EDGE_LOOP ( 'NONE', ( #227, #205, #232, #268 ) ) ;
#333 = FACE_OUTER_BOUND ( 'NONE', #239, .T. ) ;
#334 = EDGE_LOOP ( 'NONE', ( #44, #279, #261 ) ) ;
#335 = VERTEX_POINT ( 'NONE', #207 ) ;
#336 = CARTESIAN_POINT ( 'NONE',  ( 3.204969966605667226E-14, -2.024999999999997691, 17.00000000000000000 ) ) ;
#337 = CALENDAR_DATE ( 2021, 3, 9 ) ;
ENDSEC;
END-ISO-10303-21;
