ISO-10303-21;
HEADER;
FILE_DESCRIPTION (( 'STEP AP203' ),
    '1' );
FILE_NAME ('42870.step',
    '2021-09-03T07:22:29',
    ( '' ),
    ( '' ),
    'SwSTEP 2.0',
    'SolidWorks 2019',
    '' );
FILE_SCHEMA (( 'CONFIG_CONTROL_DESIGN' ));
ENDSEC;

DATA;
#1 = ADVANCED_FACE ( 'NONE', ( #73 ), #246, .F. ) ;
#2 = VERTEX_POINT ( 'NONE', #317 ) ;
#3 = PERSON_AND_ORGANIZATION_ROLE ( 'creator' ) ;
#4 = CARTESIAN_POINT ( 'NONE',  ( 0.0000000000000000000, 0.0000000000000000000, 0.0000000000000000000 ) ) ;
#5 = PRODUCT_RELATED_PRODUCT_CATEGORY ( 'detail', '', ( #289 ) ) ;
#6 = ORIENTED_EDGE ( 'NONE', *, *, #207, .F. ) ;
#7 = CALENDAR_DATE ( 2021, 3, 9 ) ;
#8 = AXIS2_PLACEMENT_3D ( 'NONE', #227, #65, #126 ) ;
#9 = LOCAL_TIME ( 9, 22, 29.00000000000000000, #116 ) ;
#10 = DIRECTION ( 'NONE',  ( 0.0000000000000000000, 1.000000000000000000, 0.0000000000000000000 ) ) ;
#11 = ORIENTED_EDGE ( 'NONE', *, *, #298, .T. ) ;
#12 = EDGE_LOOP ( 'NONE', ( #124, #135, #213, #94 ) ) ;
#13 = APPROVAL_ROLE ( '' ) ;
#14 = DIRECTION ( 'NONE',  ( -3.491481338843133355E-15, 1.224646799147353207E-16, -1.000000000000000000 ) ) ;
#15 = VECTOR ( 'NONE', #70, 1000.000000000000000 ) ;
#16 = ADVANCED_FACE ( 'NONE', ( #325 ), #39, .T. ) ;
#17 = UNCERTAINTY_MEASURE_WITH_UNIT (LENGTH_MEASURE( 1.000000000000000082E-05 ), #230, 'distance_accuracy_value', 'NONE');
#18 = DIRECTION ( 'NONE',  ( 0.0000000000000000000, 1.000000000000000000, 0.0000000000000000000 ) ) ;
#19 = CONICAL_SURFACE ( 'NONE', #209, 1.974999999999994982, 1.029744258676649649 ) ;
#20 = CARTESIAN_POINT ( 'NONE',  ( 4.385207679028046589E-15, 1.974999999999994982, 1.186699722579441785 ) ) ;
#21 = CARTESIAN_POINT ( 'NONE',  ( 0.0000000000000000000, 0.0000000000000000000, 0.0000000000000000000 ) ) ;
#22 = CARTESIAN_POINT ( 'NONE',  ( 1.252368996734157577E-13, -1.974999999999999423, 17.00000000000000000 ) ) ;
#23 =( NAMED_UNIT ( * ) SI_UNIT ( $, .STERADIAN. ) SOLID_ANGLE_UNIT ( ) );
#24 = CYLINDRICAL_SURFACE ( 'NONE', #307, 1.974999999999995870 ) ;
#25 = CC_DESIGN_APPROVAL ( #254, ( #320 ) ) ;
#26 = CC_DESIGN_PERSON_AND_ORGANIZATION_ASSIGNMENT ( #187, #279, ( #191 ) ) ;
#27 = VERTEX_POINT ( 'NONE', #268 ) ;
#28 = APPROVAL_DATE_TIME ( #49, #76 ) ;
#29 = ADVANCED_FACE ( 'NONE', ( #222 ), #301, .T. ) ;
#30 = CONICAL_SURFACE ( 'NONE', #115, 1.974999999999994982, 1.029744258676649649 ) ;
#31 = ORIENTED_EDGE ( 'NONE', *, *, #36, .F. ) ;
#32 = DATE_TIME_ROLE ( 'classification_date' ) ;
#33 = PERSON_AND_ORGANIZATION ( #102, #81 ) ;
#34 = CIRCLE ( 'NONE', #192, 1.575000000000001954 ) ;
#35 = CARTESIAN_POINT ( 'NONE',  ( 5.935518276033326704E-14, -2.081899558550500280E-15, 17.00000000000000000 ) ) ;
#36 = EDGE_CURVE ( 'NONE', #328, #306, #166, .T. ) ;
#37 = VERTEX_POINT ( 'NONE', #296 ) ;
#38 = DIRECTION ( 'NONE',  ( -3.900617608885550807E-31, -1.000000000000000000, -1.097926250618235108E-16 ) ) ;
#39 = PLANE ( 'NONE',  #72 ) ;
#40 = CARTESIAN_POINT ( 'NONE',  ( 0.0000000000000000000, 0.0000000000000000000, 0.0000000000000000000 ) ) ;
#41 = DIRECTION ( 'NONE',  ( 3.491481338843133355E-15, -1.224646799147353207E-16, 1.000000000000000000 ) ) ;
#42 = DIRECTION ( 'NONE',  ( 4.275831445896958607E-31, 1.000000000000000000, 1.224646799147352961E-16 ) ) ;
#43 = SHAPE_DEFINITION_REPRESENTATION ( #200, #179 ) ;
#44 = CARTESIAN_POINT ( 'NONE',  ( 1.922243555072380594E-13, -1.575000000000008615, 55.00000000000000000 ) ) ;
#45 = DESIGN_CONTEXT ( 'detailed design', #208, 'design' ) ;
#46 = CC_DESIGN_PERSON_AND_ORGANIZATION_ASSIGNMENT ( #243, #294, ( #289 ) ) ;
#47 = DIRECTION ( 'NONE',  ( -3.491481338843133355E-15, 1.224646799147353207E-16, -1.000000000000000000 ) ) ;
#48 = CYLINDRICAL_SURFACE ( 'NONE', #291, 1.974999999999999423 ) ;
#49 = DATE_AND_TIME ( #309, #95 ) ;
#50 = CONICAL_SURFACE ( 'NONE', #267, 1.575000000000001954, 0.7853981633974593812 ) ;
#51 = VERTEX_POINT ( 'NONE', #225 ) ;
#52 = DIRECTION ( 'NONE',  ( -3.491481338843133355E-15, 1.224646799147353207E-16, -1.000000000000000000 ) ) ;
#53 = EDGE_LOOP ( 'NONE', ( #300, #332, #101, #276 ) ) ;
#54 = LINE ( 'NONE', #216, #218 ) ;
#55 =( GEOMETRIC_REPRESENTATION_CONTEXT ( 3 ) GLOBAL_UNCERTAINTY_ASSIGNED_CONTEXT ( ( #17 ) ) GLOBAL_UNIT_ASSIGNED_CONTEXT ( ( #230, #231, #23 ) ) REPRESENTATION_CONTEXT ( 'NONE', 'WORKASPACE' ) );
#56 = AXIS2_PLACEMENT_3D ( 'NONE', #286, #315, #120 ) ;
#57 = CC_DESIGN_APPROVAL ( #285, ( #195 ) ) ;
#58 = APPROVAL_STATUS ( 'not_yet_approved' ) ;
#59 = DATE_AND_TIME ( #109, #9 ) ;
#60 = DIRECTION ( 'NONE',  ( 1.798245827342160317E-15, -0.8571673007021098911, 0.5150380749100582634 ) ) ;
#61 = DIRECTION ( 'NONE',  ( 1.903218546456022717E-15, 0.8571673007021097801, 0.5150380749100585964 ) ) ;
#62 = AXIS2_PLACEMENT_3D ( 'NONE', #223, #110, #211 ) ;
#63 = LINE ( 'NONE', #236, #201 ) ;
#64 = EDGE_LOOP ( 'NONE', ( #159, #6 ) ) ;
#65 = DIRECTION ( 'NONE',  ( -3.491481338843133355E-15, 1.224646799147353207E-16, -1.000000000000000000 ) ) ;
#66 = ADVANCED_FACE ( 'NONE', ( #180 ), #50, .T. ) ;
#67 = LOCAL_TIME ( 9, 22, 29.00000000000000000, #151 ) ;
#68 = DIRECTION ( 'NONE',  ( 3.900617608885550807E-31, 1.000000000000000000, 1.097926250618235108E-16 ) ) ;
#69 = ORIENTED_EDGE ( 'NONE', *, *, #183, .T. ) ;
#70 = DIRECTION ( 'NONE',  ( -3.491481338843133355E-15, 1.224646799147353207E-16, -1.000000000000000000 ) ) ;
#71 = ORIENTED_EDGE ( 'NONE', *, *, #96, .F. ) ;
#72 = AXIS2_PLACEMENT_3D ( 'NONE', #91, #85, #287 ) ;
#73 = FACE_OUTER_BOUND ( 'NONE', #64, .T. ) ;
#74 = DATE_AND_TIME ( #7, #337 ) ;
#75 = COORDINATED_UNIVERSAL_TIME_OFFSET ( 1, 0, .AHEAD. ) ;
#76 = APPROVAL ( #217, 'UNSPECIFIED' ) ;
#77 = FACE_OUTER_BOUND ( 'NONE', #197, .T. ) ;
#78 = CARTESIAN_POINT ( 'NONE',  ( 1.920314736363723472E-13, 1.574999999999995293, 55.00000000000000000 ) ) ;
#79 = CARTESIAN_POINT ( 'NONE',  ( 8.444767105646476126E-31, 1.974999999999995870, 2.418677428316017105E-16 ) ) ;
#80 = ORIENTED_EDGE ( 'NONE', *, *, #112, .T. ) ;
#81 = ORGANIZATION ( 'UNSPECIFIED', 'UNSPECIFIED', '' ) ;
#82 = VECTOR ( 'NONE', #60, 1000.000000000000000 ) ;
#83 = ADVANCED_FACE ( 'NONE', ( #273 ), #48, .T. ) ;
#84 = ORIENTED_EDGE ( 'NONE', *, *, #193, .F. ) ;
#85 = DIRECTION ( 'NONE',  ( 3.491481338843133355E-15, -1.224646799147353207E-16, 1.000000000000000000 ) ) ;
#86 = ORIENTED_EDGE ( 'NONE', *, *, #129, .F. ) ;
#87 = APPLICATION_PROTOCOL_DEFINITION ( 'international standard', 'config_control_design', 1994, #220 ) ;
#88 = ORIENTED_EDGE ( 'NONE', *, *, #162, .T. ) ;
#89 = CIRCLE ( 'NONE', #305, 1.974999999999994982 ) ;
#90 = ORIENTED_EDGE ( 'NONE', *, *, #292, .F. ) ;
#91 = CARTESIAN_POINT ( 'NONE',  ( 5.935518276033326704E-14, 1.481012785378579051E-32, 17.00000000000000000 ) ) ;
#92 = LINE ( 'NONE', #44, #181 ) ;
#93 = DIRECTION ( 'NONE',  ( -3.491481338843133355E-15, 1.224646799147353207E-16, -1.000000000000000000 ) ) ;
#94 = ORIENTED_EDGE ( 'NONE', *, *, #278, .F. ) ;
#95 = LOCAL_TIME ( 9, 22, 29.00000000000000000, #75 ) ;
#96 = EDGE_CURVE ( 'NONE', #328, #37, #312, .T. ) ;
#97 = AXIS2_PLACEMENT_3D ( 'NONE', #146, #330, #103 ) ;
#98 = LINE ( 'NONE', #20, #336 ) ;
#99 = ORIENTED_EDGE ( 'NONE', *, *, #207, .T. ) ;
#100 = CARTESIAN_POINT ( 'NONE',  ( 1.920314736363723472E-13, -6.735557395310442615E-15, 55.00000000000000000 ) ) ;
#101 = ORIENTED_EDGE ( 'NONE', *, *, #278, .T. ) ;
#102 = PERSON ( 'UNSPECIFIED', 'UNSPECIFIED', 'UNSPECIFIED', ('UNSPECIFIED'), ('UNSPECIFIED'), ('UNSPECIFIED') ) ;
#103 = DIRECTION ( 'NONE',  ( -4.275831445896958607E-31, -1.000000000000000000, -1.224646799147353207E-16 ) ) ;
#104 = DIRECTION ( 'NONE',  ( -3.491481338843133355E-15, 1.224646799147353207E-16, -1.000000000000000000 ) ) ;
#105 = ADVANCED_FACE ( 'NONE', ( #189 ), #335, .T. ) ;
#106 = APPROVAL_STATUS ( 'not_yet_approved' ) ;
#107 = AXIS2_PLACEMENT_3D ( 'NONE', #275, #252, #10 ) ;
#108 = DIRECTION ( 'NONE',  ( -3.491481338843133355E-15, 1.224646799147353207E-16, -1.000000000000000000 ) ) ;
#109 = CALENDAR_DATE ( 2021, 3, 9 ) ;
#110 = DIRECTION ( 'NONE',  ( -3.491481338843133355E-15, 1.224646799147353207E-16, -1.000000000000000000 ) ) ;
#111 = CARTESIAN_POINT ( 'NONE',  ( 4.143339936196444041E-15, -1.453288016805965014E-16, 1.186699722579441563 ) ) ;
#112 = EDGE_CURVE ( 'NONE', #37, #326, #89, .T. ) ;
#113 = ORIENTED_EDGE ( 'NONE', *, *, #136, .F. ) ;
#114 = DIRECTION ( 'NONE',  ( -3.491481338843133355E-15, 1.224646799147353207E-16, -1.000000000000000000 ) ) ;
#115 = AXIS2_PLACEMENT_3D ( 'NONE', #111, #242, #38 ) ;
#116 = COORDINATED_UNIVERSAL_TIME_OFFSET ( 1, 0, .AHEAD. ) ;
#117 = ORIENTED_EDGE ( 'NONE', *, *, #311, .T. ) ;
#118 = CARTESIAN_POINT ( 'NONE',  ( 1.920314736363723472E-13, 1.574999999999995293, 55.00000000000000000 ) ) ;
#119 = CC_DESIGN_PERSON_AND_ORGANIZATION_ASSIGNMENT ( #156, #3, ( #191 ) ) ;
#120 = DIRECTION ( 'NONE',  ( 0.0000000000000000000, 1.000000000000000000, 0.0000000000000000000 ) ) ;
#121 = DIRECTION ( 'NONE',  ( -3.491481338843133355E-15, 1.224646799147353207E-16, -1.000000000000000000 ) ) ;
#122 = ADVANCED_FACE ( 'NONE', ( #182 ), #24, .T. ) ;
#123 = EDGE_LOOP ( 'NONE', ( #313, #165, #203, #131 ) ) ;
#124 = ORIENTED_EDGE ( 'NONE', *, *, #171, .T. ) ;
#125 = CARTESIAN_POINT ( 'NONE',  ( 4.143339936196444041E-15, -1.453288016805965014E-16, 1.186699722579441563 ) ) ;
#126 = DIRECTION ( 'NONE',  ( 0.0000000000000000000, 1.000000000000000000, 0.0000000000000000000 ) ) ;
#127 = AXIS2_PLACEMENT_3D ( 'NONE', #21, #163, #164 ) ;
#128 = APPROVAL_PERSON_ORGANIZATION ( #281, #76, #334 ) ;
#129 = EDGE_CURVE ( 'NONE', #322, #37, #98, .T. ) ;
#130 = PERSON_AND_ORGANIZATION_ROLE ( 'classification_officer' ) ;
#131 = ORIENTED_EDGE ( 'NONE', *, *, #298, .F. ) ;
#132 = CARTESIAN_POINT ( 'NONE',  ( 5.935518276033326704E-14, 1.974999999999994982, 17.00000000000000000 ) ) ;
#133 = CIRCLE ( 'NONE', #62, 1.974999999999997202 ) ;
#134 = APPROVAL_PERSON_ORGANIZATION ( #237, #254, #13 ) ;
#135 = ORIENTED_EDGE ( 'NONE', *, *, #238, .T. ) ;
#136 = EDGE_CURVE ( 'NONE', #155, #2, #92, .T. ) ;
#137 = CARTESIAN_POINT ( 'NONE',  ( 4.143339936196443252E-15, -1.974999999999994982, 1.186699722579441341 ) ) ;
#138 = ORIENTED_EDGE ( 'NONE', *, *, #193, .T. ) ;
#139 = CARTESIAN_POINT ( 'NONE',  ( 0.0000000000000000000, 0.0000000000000000000, 0.0000000000000000000 ) ) ;
#140 = DIRECTION ( 'NONE',  ( -3.491481338843133355E-15, 1.224646799147353207E-16, -1.000000000000000000 ) ) ;
#141 = DATE_AND_TIME ( #261, #174 ) ;
#142 = LINE ( 'NONE', #137, #82 ) ;
#143 = CIRCLE ( 'NONE', #329, 1.974999999999997202 ) ;
#144 = CARTESIAN_POINT ( 'NONE',  ( 1.920314736363723472E-13, 1.181060828846204245E-32, 55.00000000000000000 ) ) ;
#145 = CC_DESIGN_DATE_AND_TIME_ASSIGNMENT ( #59, #188, ( #320 ) ) ;
#146 = CARTESIAN_POINT ( 'NONE',  ( 5.935518276033326704E-14, 1.481012785378579051E-32, 17.00000000000000000 ) ) ;
#147 = AXIS2_PLACEMENT_3D ( 'NONE', #144, #140, #168 ) ;
#148 = ORIENTED_EDGE ( 'NONE', *, *, #327, .T. ) ;
#149 = APPROVAL_PERSON_ORGANIZATION ( #333, #285, #219 ) ;
#150 = DIRECTION ( 'NONE',  ( 4.275831445896958607E-31, 1.000000000000000000, 1.224646799147352961E-16 ) ) ;
#151 = COORDINATED_UNIVERSAL_TIME_OFFSET ( 1, 0, .AHEAD. ) ;
#152 = CIRCLE ( 'NONE', #274, 1.575000000000001954 ) ;
#153 = DIRECTION ( 'NONE',  ( -3.491481338843133355E-15, 1.224646799147353207E-16, -1.000000000000000000 ) ) ;
#154 = APPLICATION_PROTOCOL_DEFINITION ( 'international standard', 'config_control_design', 1994, #208 ) ;
#155 = VERTEX_POINT ( 'NONE', #248 ) ;
#156 = PERSON_AND_ORGANIZATION ( #102, #81 ) ;
#157 = ADVANCED_FACE ( 'NONE', ( #272 ), #19, .T. ) ;
#158 = CARTESIAN_POINT ( 'NONE',  ( 4.143339936196444041E-15, -1.453288016805965014E-16, 1.186699722579441563 ) ) ;
#159 = ORIENTED_EDGE ( 'NONE', *, *, #162, .F. ) ;
#160 = EDGE_LOOP ( 'NONE', ( #86, #262, #11 ) ) ;
#161 = MANIFOLD_SOLID_BREP ( 'Corps-Déplacer/Copier1[2]', #283 ) ;
#162 = EDGE_CURVE ( 'NONE', #255, #155, #152, .T. ) ;
#163 = DIRECTION ( 'NONE',  ( 0.0000000000000000000, 0.0000000000000000000, 1.000000000000000000 ) ) ;
#164 = DIRECTION ( 'NONE',  ( 1.000000000000000000, 0.0000000000000000000, 0.0000000000000000000 ) ) ;
#165 = ORIENTED_EDGE ( 'NONE', *, *, #244, .T. ) ;
#166 = CIRCLE ( 'NONE', #8, 1.974999999999997202 ) ;
#167 = CLOSED_SHELL ( 'NONE', ( #258, #83, #302, #29, #66, #1 ) ) ;
#168 = DIRECTION ( 'NONE',  ( 4.275831445896958607E-31, 1.000000000000000000, 1.224646799147353207E-16 ) ) ;
#169 = CARTESIAN_POINT ( 'NONE',  ( 4.143339936196444041E-15, -1.453288016805965014E-16, 1.186699722579441563 ) ) ;
#170 = DIRECTION ( 'NONE',  ( -3.491481338843133355E-15, 1.224646799147353207E-16, -1.000000000000000000 ) ) ;
#171 = EDGE_CURVE ( 'NONE', #27, #2, #314, .T. ) ;
#172 = VERTEX_POINT ( 'NONE', #22 ) ;
#173 = DIRECTION ( 'NONE',  ( -2.382254525458688282E-15, -0.7071067811865552333, -0.7071067811865398012 ) ) ;
#174 = LOCAL_TIME ( 9, 22, 29.00000000000000000, #308 ) ;
#175 = VECTOR ( 'NONE', #321, 1000.000000000000000 ) ;
#176 = DIRECTION ( 'NONE',  ( 0.0000000000000000000, 1.000000000000000000, 0.0000000000000000000 ) ) ;
#177 = CALENDAR_DATE ( 2021, 3, 9 ) ;
#178 = DIRECTION ( 'NONE',  ( -3.491481338843133355E-15, 1.224646799147353207E-16, -1.000000000000000000 ) ) ;
#179 = ADVANCED_BREP_SHAPE_REPRESENTATION ( '42870', ( #269, #161, #127 ), #55 ) ;
#180 = FACE_OUTER_BOUND ( 'NONE', #198, .T. ) ;
#181 = VECTOR ( 'NONE', #173, 1000.000000000000000 ) ;
#182 = FACE_OUTER_BOUND ( 'NONE', #323, .T. ) ;
#183 = EDGE_CURVE ( 'NONE', #51, #172, #133, .T. ) ;
#184 = CARTESIAN_POINT ( 'NONE',  ( 0.0000000000000000000, 0.0000000000000000000, 0.0000000000000000000 ) ) ;
#185 = VECTOR ( 'NONE', #108, 1000.000000000000000 ) ;
#186 = DIRECTION ( 'NONE',  ( 4.275831445896958607E-31, 1.000000000000000000, 1.224646799147352961E-16 ) ) ;
#187 = PERSON_AND_ORGANIZATION ( #102, #81 ) ;
#188 = DATE_TIME_ROLE ( 'creation_date' ) ;
#189 = FACE_OUTER_BOUND ( 'NONE', #123, .T. ) ;
#190 = CC_DESIGN_DATE_AND_TIME_ASSIGNMENT ( #74, #32, ( #195 ) ) ;
#191 = PRODUCT_DEFINITION_FORMATION_WITH_SPECIFIED_SOURCE ( 'ANY', '', #289, .NOT_KNOWN. ) ;
#192 = AXIS2_PLACEMENT_3D ( 'NONE', #259, #170, #18 ) ;
#193 = EDGE_CURVE ( 'NONE', #255, #27, #212, .T. ) ;
#194 = MECHANICAL_CONTEXT ( 'NONE', #220, 'mechanical' ) ;
#195 = SECURITY_CLASSIFICATION ( '', '', #303 ) ;
#196 = EDGE_CURVE ( 'NONE', #322, #326, #142, .T. ) ;
#197 = EDGE_LOOP ( 'NONE', ( #245, #224, #80 ) ) ;
#198 = EDGE_LOOP ( 'NONE', ( #113, #99, #138, #90 ) ) ;
#199 = DIRECTION ( 'NONE',  ( 0.0000000000000000000, 1.000000000000000000, 0.0000000000000000000 ) ) ;
#200 = PRODUCT_DEFINITION_SHAPE ( 'NONE', 'NONE',  #320 ) ;
#201 = VECTOR ( 'NONE', #47, 1000.000000000000000 ) ;
#202 = DIRECTION ( 'NONE',  ( 0.0000000000000000000, 1.000000000000000000, 0.0000000000000000000 ) ) ;
#203 = ORIENTED_EDGE ( 'NONE', *, *, #96, .T. ) ;
#204 = CC_DESIGN_PERSON_AND_ORGANIZATION_ASSIGNMENT ( #33, #239, ( #320 ) ) ;
#205 = CARTESIAN_POINT ( 'NONE',  ( 0.0000000000000000000, 0.0000000000000000000, 0.0000000000000000000 ) ) ;
#206 = DIRECTION ( 'NONE',  ( -3.491481338843133355E-15, 1.224646799147353207E-16, -1.000000000000000000 ) ) ;
#207 = EDGE_CURVE ( 'NONE', #155, #255, #34, .T. ) ;
#208 = APPLICATION_CONTEXT ( 'configuration controlled 3d designs of mechanical parts and assemblies' ) ;
#209 = AXIS2_PLACEMENT_3D ( 'NONE', #125, #41, #264 ) ;
#210 = CARTESIAN_POINT ( 'NONE',  ( 3.199112909109642338E-14, -1.974999999999999423, 17.00000000000000000 ) ) ;
#211 = DIRECTION ( 'NONE',  ( 0.0000000000000000000, 1.000000000000000000, 0.0000000000000000000 ) ) ;
#212 = LINE ( 'NONE', #118, #175 ) ;
#213 = ORIENTED_EDGE ( 'NONE', *, *, #183, .F. ) ;
#214 = AXIS2_PLACEMENT_3D ( 'NONE', #40, #153, #42 ) ;
#215 = DIRECTION ( 'NONE',  ( 3.900617608885550807E-31, 1.000000000000000000, 1.097926250618235108E-16 ) ) ;
#216 = CARTESIAN_POINT ( 'NONE',  ( 2.418677428316013654E-16, -1.974999999999999423, -2.418677428316029924E-16 ) ) ;
#217 = APPROVAL_STATUS ( 'not_yet_approved' ) ;
#218 = VECTOR ( 'NONE', #114, 1000.000000000000000 ) ;
#219 = APPROVAL_ROLE ( '' ) ;
#220 = APPLICATION_CONTEXT ( 'configuration controlled 3d designs of mechanical parts and assemblies' ) ;
#221 = ORIENTED_EDGE ( 'NONE', *, *, #136, .T. ) ;
#222 = FACE_OUTER_BOUND ( 'NONE', #53, .T. ) ;
#223 = CARTESIAN_POINT ( 'NONE',  ( 5.935518276033326704E-14, -2.081899558550500280E-15, 17.00000000000000000 ) ) ;
#224 = ORIENTED_EDGE ( 'NONE', *, *, #129, .T. ) ;
#225 = CARTESIAN_POINT ( 'NONE',  ( 5.935518276033326704E-14, 1.974999999999994982, 17.00000000000000000 ) ) ;
#226 = ORIENTED_EDGE ( 'NONE', *, *, #36, .T. ) ;
#227 = CARTESIAN_POINT ( 'NONE',  ( 5.935518276033326704E-14, -2.081899558550500280E-15, 17.00000000000000000 ) ) ;
#228 = DATE_AND_TIME ( #177, #67 ) ;
#229 = CARTESIAN_POINT ( 'NONE',  ( 1.920314736363723472E-13, -6.735557395310442615E-15, 55.00000000000000000 ) ) ;
#230 =( LENGTH_UNIT ( ) NAMED_UNIT ( * ) SI_UNIT ( .MILLI., .METRE. ) );
#231 =( NAMED_UNIT ( * ) PLANE_ANGLE_UNIT ( ) SI_UNIT ( $, .RADIAN. ) );
#232 = CIRCLE ( 'NONE', #107, 1.975000000000001421 ) ;
#233 = EDGE_LOOP ( 'NONE', ( #88, #221, #265, #84 ) ) ;
#234 = COORDINATED_UNIVERSAL_TIME_OFFSET ( 1, 0, .AHEAD. ) ;
#235 = CC_DESIGN_PERSON_AND_ORGANIZATION_ASSIGNMENT ( #271, #130, ( #195 ) ) ;
#236 = CARTESIAN_POINT ( 'NONE',  ( 8.444767105646490139E-31, 1.974999999999999423, 2.418677428316021543E-16 ) ) ;
#237 = PERSON_AND_ORGANIZATION ( #102, #81 ) ;
#238 = EDGE_CURVE ( 'NONE', #2, #172, #54, .T. ) ;
#239 = PERSON_AND_ORGANIZATION_ROLE ( 'creator' ) ;
#240 = CARTESIAN_POINT ( 'NONE',  ( 4.143339936196443252E-15, -1.974999999999994982, 1.186699722579441341 ) ) ;
#241 = AXIS2_PLACEMENT_3D ( 'NONE', #169, #14, #215 ) ;
#242 = DIRECTION ( 'NONE',  ( 3.491481338843133355E-15, -1.224646799147353207E-16, 1.000000000000000000 ) ) ;
#243 = PERSON_AND_ORGANIZATION ( #102, #81 ) ;
#244 = EDGE_CURVE ( 'NONE', #306, #328, #257, .T. ) ;
#245 = ORIENTED_EDGE ( 'NONE', *, *, #196, .F. ) ;
#246 = PLANE ( 'NONE',  #147 ) ;
#247 = AXIS2_PLACEMENT_3D ( 'NONE', #288, #310, #251 ) ;
#248 = CARTESIAN_POINT ( 'NONE',  ( 1.915505521754523874E-13, -1.575000000000008615, 55.00000000000000000 ) ) ;
#249 = CONICAL_SURFACE ( 'NONE', #247, 1.575000000000001954, 0.7853981633974593812 ) ;
#250 = PLANE ( 'NONE',  #97 ) ;
#251 = DIRECTION ( 'NONE',  ( 0.0000000000000000000, 1.000000000000000000, 0.0000000000000000000 ) ) ;
#252 = DIRECTION ( 'NONE',  ( -3.491481338843133355E-15, 1.224646799147353207E-16, -1.000000000000000000 ) ) ;
#253 = AXIS2_PLACEMENT_3D ( 'NONE', #266, #121, #176 ) ;
#254 = APPROVAL ( #106, 'UNSPECIFIED' ) ;
#255 = VERTEX_POINT ( 'NONE', #78 ) ;
#256 = DIRECTION ( 'NONE',  ( 0.0000000000000000000, 1.000000000000000000, 0.0000000000000000000 ) ) ;
#257 = CIRCLE ( 'NONE', #56, 1.974999999999997202 ) ;
#258 = ADVANCED_FACE ( 'NONE', ( #319 ), #249, .T. ) ;
#259 = CARTESIAN_POINT ( 'NONE',  ( 1.920314736363723472E-13, -6.735557395310442615E-15, 55.00000000000000000 ) ) ;
#260 = EDGE_LOOP ( 'NONE', ( #31, #263 ) ) ;
#261 = CALENDAR_DATE ( 2021, 3, 9 ) ;
#262 = ORIENTED_EDGE ( 'NONE', *, *, #196, .T. ) ;
#263 = ORIENTED_EDGE ( 'NONE', *, *, #244, .F. ) ;
#264 = DIRECTION ( 'NONE',  ( -3.900617608885550807E-31, -1.000000000000000000, -1.097926250618235108E-16 ) ) ;
#265 = ORIENTED_EDGE ( 'NONE', *, *, #171, .F. ) ;
#266 = CARTESIAN_POINT ( 'NONE',  ( 1.906348811008351191E-13, -6.686571523344549975E-15, 54.60000000000000853 ) ) ;
#267 = AXIS2_PLACEMENT_3D ( 'NONE', #100, #178, #202 ) ;
#268 = CARTESIAN_POINT ( 'NONE',  ( 1.906348811008351191E-13, 1.974999999999994982, 54.60000000000000853 ) ) ;
#269 = MANIFOLD_SOLID_BREP ( 'Corps-Déplacer/Copier1[1]', #167 ) ;
#270 = CARTESIAN_POINT ( 'NONE',  ( 2.418677428316009217E-16, -1.974999999999995870, -2.418677428316025980E-16 ) ) ;
#271 = PERSON_AND_ORGANIZATION ( #102, #81 ) ;
#272 = FACE_OUTER_BOUND ( 'NONE', #160, .T. ) ;
#273 = FACE_OUTER_BOUND ( 'NONE', #12, .T. ) ;
#274 = AXIS2_PLACEMENT_3D ( 'NONE', #229, #93, #199 ) ;
#275 = CARTESIAN_POINT ( 'NONE',  ( 1.906348811008351191E-13, -6.686571523344549975E-15, 54.60000000000000853 ) ) ;
#276 = ORIENTED_EDGE ( 'NONE', *, *, #311, .F. ) ;
#277 = CC_DESIGN_APPROVAL ( #76, ( #191 ) ) ;
#278 = EDGE_CURVE ( 'NONE', #27, #51, #63, .T. ) ;
#279 = PERSON_AND_ORGANIZATION_ROLE ( 'design_supplier' ) ;
#280 = APPROVAL_DATE_TIME ( #141, #254 ) ;
#281 = PERSON_AND_ORGANIZATION ( #102, #81 ) ;
#282 = ADVANCED_FACE ( 'NONE', ( #77 ), #30, .T. ) ;
#283 = CLOSED_SHELL ( 'NONE', ( #122, #282, #157, #105, #16 ) ) ;
#284 = CC_DESIGN_SECURITY_CLASSIFICATION ( #195, ( #191 ) ) ;
#285 = APPROVAL ( #58, 'UNSPECIFIED' ) ;
#286 = CARTESIAN_POINT ( 'NONE',  ( 5.935518276033326704E-14, -2.081899558550500280E-15, 17.00000000000000000 ) ) ;
#287 = DIRECTION ( 'NONE',  ( -4.275831445896958607E-31, -1.000000000000000000, -1.224646799147353207E-16 ) ) ;
#288 = CARTESIAN_POINT ( 'NONE',  ( 1.920314736363723472E-13, -6.735557395310442615E-15, 55.00000000000000000 ) ) ;
#289 = PRODUCT ( '42870', '42870', '', ( #194 ) ) ;
#290 = LINE ( 'NONE', #270, #185 ) ;
#291 = AXIS2_PLACEMENT_3D ( 'NONE', #4, #104, #186 ) ;
#292 = EDGE_CURVE ( 'NONE', #2, #27, #232, .T. ) ;
#293 = EDGE_LOOP ( 'NONE', ( #69, #117 ) ) ;
#294 = PERSON_AND_ORGANIZATION_ROLE ( 'design_owner' ) ;
#295 = CIRCLE ( 'NONE', #241, 1.974999999999994982 ) ;
#296 = CARTESIAN_POINT ( 'NONE',  ( 4.385207679028046589E-15, 1.974999999999994982, 1.186699722579441785 ) ) ;
#297 = ORIENTED_EDGE ( 'NONE', *, *, #112, .F. ) ;
#298 = EDGE_CURVE ( 'NONE', #326, #37, #295, .T. ) ;
#299 = DIRECTION ( 'NONE',  ( -3.491481338843133355E-15, 1.224646799147353207E-16, -1.000000000000000000 ) ) ;
#300 = ORIENTED_EDGE ( 'NONE', *, *, #238, .F. ) ;
#301 = CYLINDRICAL_SURFACE ( 'NONE', #214, 1.974999999999999423 ) ;
#302 = ADVANCED_FACE ( 'NONE', ( #318 ), #250, .F. ) ;
#303 = SECURITY_CLASSIFICATION_LEVEL ( 'unclassified' ) ;
#304 = DIRECTION ( 'NONE',  ( 4.275831445896958607E-31, 1.000000000000000000, 1.224646799147352961E-16 ) ) ;
#305 = AXIS2_PLACEMENT_3D ( 'NONE', #158, #206, #68 ) ;
#306 = VERTEX_POINT ( 'NONE', #210 ) ;
#307 = AXIS2_PLACEMENT_3D ( 'NONE', #205, #299, #150 ) ;
#308 = COORDINATED_UNIVERSAL_TIME_OFFSET ( 1, 0, .AHEAD. ) ;
#309 = CALENDAR_DATE ( 2021, 3, 9 ) ;
#310 = DIRECTION ( 'NONE',  ( -3.491481338843133355E-15, 1.224646799147353207E-16, -1.000000000000000000 ) ) ;
#311 = EDGE_CURVE ( 'NONE', #172, #51, #143, .T. ) ;
#312 = LINE ( 'NONE', #79, #15 ) ;
#313 = ORIENTED_EDGE ( 'NONE', *, *, #327, .F. ) ;
#314 = CIRCLE ( 'NONE', #253, 1.975000000000001421 ) ;
#315 = DIRECTION ( 'NONE',  ( -3.491481338843133355E-15, 1.224646799147353207E-16, -1.000000000000000000 ) ) ;
#316 = DIRECTION ( 'NONE',  ( -3.491481338843133355E-15, 1.224646799147353207E-16, -1.000000000000000000 ) ) ;
#317 = CARTESIAN_POINT ( 'NONE',  ( 1.252368996734156315E-13, -1.975000000000008082, 54.60000000000000853 ) ) ;
#318 = FACE_OUTER_BOUND ( 'NONE', #293, .T. ) ;
#319 = FACE_OUTER_BOUND ( 'NONE', #233, .T. ) ;
#320 = PRODUCT_DEFINITION ( 'UNKNOWN', '', #191, #45 ) ;
#321 = DIRECTION ( 'NONE',  ( -2.468850131082237733E-15, 0.7071067811865554553, -0.7071067811865395791 ) ) ;
#322 = VERTEX_POINT ( 'NONE', #139 ) ;
#323 = EDGE_LOOP ( 'NONE', ( #226, #148, #297, #71 ) ) ;
#324 = AXIS2_PLACEMENT_3D ( 'NONE', #184, #52, #304 ) ;
#325 = FACE_OUTER_BOUND ( 'NONE', #260, .T. ) ;
#326 = VERTEX_POINT ( 'NONE', #240 ) ;
#327 = EDGE_CURVE ( 'NONE', #306, #326, #290, .T. ) ;
#328 = VERTEX_POINT ( 'NONE', #132 ) ;
#329 = AXIS2_PLACEMENT_3D ( 'NONE', #35, #316, #256 ) ;
#330 = DIRECTION ( 'NONE',  ( 3.491481338843133355E-15, -1.224646799147353207E-16, 1.000000000000000000 ) ) ;
#331 = APPROVAL_DATE_TIME ( #228, #285 ) ;
#332 = ORIENTED_EDGE ( 'NONE', *, *, #292, .T. ) ;
#333 = PERSON_AND_ORGANIZATION ( #102, #81 ) ;
#334 = APPROVAL_ROLE ( '' ) ;
#335 = CYLINDRICAL_SURFACE ( 'NONE', #324, 1.974999999999995870 ) ;
#336 = VECTOR ( 'NONE', #61, 999.9999999999998863 ) ;
#337 = LOCAL_TIME ( 9, 22, 29.00000000000000000, #234 ) ;
ENDSEC;
END-ISO-10303-21;
