ISO-10303-21;
HEADER;
FILE_DESCRIPTION (( 'STEP AP203' ),
    '1' );
FILE_NAME ('42869.step',
    '2021-09-03T07:22:29',
    ( '' ),
    ( '' ),
    'SwSTEP 2.0',
    'SolidWorks 2019',
    '' );
FILE_SCHEMA (( 'CONFIG_CONTROL_DESIGN' ));
ENDSEC;

DATA;
#1 = EDGE_CURVE ( 'NONE', #239, #138, #135, .T. ) ;
#2 = DIRECTION ( 'NONE',  ( 3.491481338843133355E-15, -1.224646799147353207E-16, 1.000000000000000000 ) ) ;
#3 = DIRECTION ( 'NONE',  ( 0.0000000000000000000, 1.000000000000000000, 0.0000000000000000000 ) ) ;
#4 = DIRECTION ( 'NONE',  ( 1.903218546456021928E-15, 0.8571673007021098911, 0.5150380749100583744 ) ) ;
#5 = CLOSED_SHELL ( 'NONE', ( #21, #126, #237, #43, #175, #156 ) ) ;
#6 = VECTOR ( 'NONE', #4, 1000.000000000000114 ) ;
#7 = CARTESIAN_POINT ( 'NONE',  ( 3.840629472727446691E-14, 8.998558695971059434E-33, 11.00000000000000000 ) ) ;
#8 = ORIENTED_EDGE ( 'NONE', *, *, #130, .T. ) ;
#9 = CC_DESIGN_PERSON_AND_ORGANIZATION_ASSIGNMENT ( #88, #196, ( #226 ) ) ;
#10 = CARTESIAN_POINT ( 'NONE',  ( 1.501336975702547217E-13, -5.265981236333618470E-15, 43.00000000000000000 ) ) ;
#11 = ORIENTED_EDGE ( 'NONE', *, *, #79, .T. ) ;
#12 = AXIS2_PLACEMENT_3D ( 'NONE', #10, #314, #264 ) ;
#13 = LINE ( 'NONE', #89, #308 ) ;
#14 = ORIENTED_EDGE ( 'NONE', *, *, #299, .T. ) ;
#15 = FACE_OUTER_BOUND ( 'NONE', #193, .T. ) ;
#16 = VERTEX_POINT ( 'NONE', #319 ) ;
#17 = DIRECTION ( 'NONE',  ( -3.491481338843133355E-15, 1.224646799147353207E-16, -1.000000000000000000 ) ) ;
#18 = ADVANCED_FACE ( 'NONE', ( #97 ), #132, .T. ) ;
#19 = EDGE_LOOP ( 'NONE', ( #171, #8, #260, #110 ) ) ;
#20 = CALENDAR_DATE ( 2021, 3, 9 ) ;
#21 = ADVANCED_FACE ( 'NONE', ( #69 ), #119, .T. ) ;
#22 = LOCAL_TIME ( 9, 22, 29.00000000000000000, #103 ) ;
#23 = LINE ( 'NONE', #246, #147 ) ;
#24 = AXIS2_PLACEMENT_3D ( 'NONE', #336, #176, #3 ) ;
#25 = DIRECTION ( 'NONE',  ( 0.0000000000000000000, 1.000000000000000000, 0.0000000000000000000 ) ) ;
#26 = APPROVAL_ROLE ( '' ) ;
#27 = ORIENTED_EDGE ( 'NONE', *, *, #165, .F. ) ;
#28 = APPROVAL ( #154, 'UNSPECIFIED' ) ;
#29 = ORIENTED_EDGE ( 'NONE', *, *, #1, .T. ) ;
#30 = DIRECTION ( 'NONE',  ( 0.0000000000000000000, 1.000000000000000000, 0.0000000000000000000 ) ) ;
#31 = AXIS2_PLACEMENT_3D ( 'NONE', #227, #93, #298 ) ;
#32 = PERSON_AND_ORGANIZATION_ROLE ( 'creator' ) ;
#33 = CARTESIAN_POINT ( 'NONE',  ( 3.840629472727446691E-14, -1.347111479062088405E-15, 11.00000000000000000 ) ) ;
#34 = ORIENTED_EDGE ( 'NONE', *, *, #206, .T. ) ;
#35 = CALENDAR_DATE ( 2021, 3, 9 ) ;
#36 = ORIENTED_EDGE ( 'NONE', *, *, #323, .F. ) ;
#37 = FACE_OUTER_BOUND ( 'NONE', #112, .T. ) ;
#38 = DATE_TIME_ROLE ( 'creation_date' ) ;
#39 = CARTESIAN_POINT ( 'NONE',  ( 3.840629472727446691E-14, 8.998558695971059434E-33, 11.00000000000000000 ) ) ;
#40 = DIRECTION ( 'NONE',  ( 4.275831445896958607E-31, 1.000000000000000000, 1.224646799147353207E-16 ) ) ;
#41 = CARTESIAN_POINT ( 'NONE',  ( 9.389323156383575408E-14, -1.199999999999992628, 11.00000000000000000 ) ) ;
#42 = UNCERTAINTY_MEASURE_WITH_UNIT (LENGTH_MEASURE( 1.000000000000000082E-05 ), #291, 'distance_accuracy_value', 'NONE');
#43 = ADVANCED_FACE ( 'NONE', ( #317 ), #80, .T. ) ;
#44 = CLOSED_SHELL ( 'NONE', ( #151, #104, #137, #74, #18 ) ) ;
#45 = AXIS2_PLACEMENT_3D ( 'NONE', #72, #155, #259 ) ;
#46 = DIRECTION ( 'NONE',  ( -3.491481338843133355E-15, 1.224646799147353207E-16, -1.000000000000000000 ) ) ;
#47 = SECURITY_CLASSIFICATION_LEVEL ( 'unclassified' ) ;
#48 = EDGE_LOOP ( 'NONE', ( #281, #36 ) ) ;
#49 = ORGANIZATION ( 'UNSPECIFIED', 'UNSPECIFIED', '' ) ;
#50 = CARTESIAN_POINT ( 'NONE',  ( 1.501336975702547217E-13, -5.265981236333618470E-15, 43.00000000000000000 ) ) ;
#51 = DIRECTION ( 'NONE',  ( -3.491481338843133355E-15, 1.224646799147353207E-16, -1.000000000000000000 ) ) ;
#52 = DIRECTION ( 'NONE',  ( 0.0000000000000000000, 1.000000000000000000, 0.0000000000000000000 ) ) ;
#53 = CC_DESIGN_SECURITY_CLASSIFICATION ( #297, ( #226 ) ) ;
#54 = CC_DESIGN_APPROVAL ( #28, ( #295 ) ) ;
#55 = VERTEX_POINT ( 'NONE', #166 ) ;
#56 = LOCAL_TIME ( 9, 22, 29.00000000000000000, #204 ) ;
#57 = CARTESIAN_POINT ( 'NONE',  ( 1.497385632833387318E-13, -0.9000000000000007994, 43.00000000000000000 ) ) ;
#58 = COORDINATED_UNIVERSAL_TIME_OFFSET ( 1, 0, .AHEAD. ) ;
#59 = DIRECTION ( 'NONE',  ( 1.798245827342159528E-15, -0.8571673007021100021, 0.5150380749100580413 ) ) ;
#60 = CIRCLE ( 'NONE', #219, 1.199999999999991518 ) ;
#61 = FACE_OUTER_BOUND ( 'NONE', #48, .T. ) ;
#62 = APPROVAL ( #190, 'UNSPECIFIED' ) ;
#63 = CIRCLE ( 'NONE', #12, 0.8999999999999955813 ) ;
#64 = EDGE_LOOP ( 'NONE', ( #101, #224, #279, #216 ) ) ;
#65 = APPROVAL_STATUS ( 'not_yet_approved' ) ;
#66 = DIRECTION ( 'NONE',  ( -2.468850131082272443E-15, 0.7071067811865454633, -0.7071067811865495711 ) ) ;
#67 = DATE_AND_TIME ( #20, #198 ) ;
#68 = LINE ( 'NONE', #316, #100 ) ;
#69 = FACE_OUTER_BOUND ( 'NONE', #181, .T. ) ;
#70 = DIRECTION ( 'NONE',  ( 1.000000000000000000, 0.0000000000000000000, 0.0000000000000000000 ) ) ;
#71 = LOCAL_TIME ( 9, 22, 29.00000000000000000, #58 ) ;
#72 = CARTESIAN_POINT ( 'NONE',  ( 2.517472366296558601E-15, -8.830104405909609916E-17, 0.7210327428330741695 ) ) ;
#73 = APPROVAL_DATE_TIME ( #256, #255 ) ;
#74 = ADVANCED_FACE ( 'NONE', ( #109 ), #325, .T. ) ;
#75 = CARTESIAN_POINT ( 'NONE',  ( 1.502439157821779858E-13, -0.9000000000000007994, 43.00000000000000000 ) ) ;
#76 = FACE_OUTER_BOUND ( 'NONE', #217, .T. ) ;
#77 = CARTESIAN_POINT ( 'NONE',  ( 0.0000000000000000000, 0.0000000000000000000, 0.0000000000000000000 ) ) ;
#78 = PERSON_AND_ORGANIZATION_ROLE ( 'design_owner' ) ;
#79 = EDGE_CURVE ( 'NONE', #304, #127, #236, .T. ) ;
#80 = CYLINDRICAL_SURFACE ( 'NONE', #115, 1.199999999999993294 ) ;
#81 = SHAPE_DEFINITION_REPRESENTATION ( #186, #312 ) ;
#82 = DIRECTION ( 'NONE',  ( -3.491481338843133355E-15, 1.224646799147353207E-16, -1.000000000000000000 ) ) ;
#83 = APPLICATION_CONTEXT ( 'configuration controlled 3d designs of mechanical parts and assemblies' ) ;
#84 = CARTESIAN_POINT ( 'NONE',  ( 3.840629472727446691E-14, -1.347111479062088405E-15, 11.00000000000000000 ) ) ;
#85 = COORDINATED_UNIVERSAL_TIME_OFFSET ( 1, 0, .AHEAD. ) ;
#86 = DIRECTION ( 'NONE',  ( -3.491481338843133355E-15, 1.224646799147353207E-16, -1.000000000000000000 ) ) ;
#87 = CARTESIAN_POINT ( 'NONE',  ( 9.389323156383561524E-14, -1.200000000000000622, 42.69999999999999574 ) ) ;
#88 = PERSON_AND_ORGANIZATION ( #96, #49 ) ;
#89 = CARTESIAN_POINT ( 'NONE',  ( 5.130997735076310391E-31, 1.199999999999990852, 1.469576158976812706E-16 ) ) ;
#90 = EDGE_CURVE ( 'NONE', #230, #16, #275, .T. ) ;
#91 = AXIS2_PLACEMENT_3D ( 'NONE', #245, #266, #270 ) ;
#92 = LINE ( 'NONE', #194, #150 ) ;
#93 = DIRECTION ( 'NONE',  ( -3.491481338843133355E-15, 1.224646799147353207E-16, -1.000000000000000000 ) ) ;
#94 = ORIENTED_EDGE ( 'NONE', *, *, #99, .T. ) ;
#95 = APPROVAL_PERSON_ORGANIZATION ( #262, #28, #26 ) ;
#96 = PERSON ( 'UNSPECIFIED', 'UNSPECIFIED', 'UNSPECIFIED', ('UNSPECIFIED'), ('UNSPECIFIED'), ('UNSPECIFIED') ) ;
#97 = FACE_OUTER_BOUND ( 'NONE', #240, .T. ) ;
#98 = DIRECTION ( 'NONE',  ( 0.0000000000000000000, 1.000000000000000000, 0.0000000000000000000 ) ) ;
#99 = EDGE_CURVE ( 'NONE', #55, #238, #286, .T. ) ;
#100 = VECTOR ( 'NONE', #180, 1000.000000000000000 ) ;
#101 = ORIENTED_EDGE ( 'NONE', *, *, #117, .F. ) ;
#102 = DIRECTION ( 'NONE',  ( -3.491481338843133355E-15, 1.224646799147353207E-16, -1.000000000000000000 ) ) ;
#103 = COORDINATED_UNIVERSAL_TIME_OFFSET ( 1, 0, .AHEAD. ) ;
#104 = ADVANCED_FACE ( 'NONE', ( #309 ), #241, .T. ) ;
#105 = DIRECTION ( 'NONE',  ( -4.275831445896958607E-31, -1.000000000000000000, -1.224646799147353207E-16 ) ) ;
#106 = AXIS2_PLACEMENT_3D ( 'NONE', #7, #2, #105 ) ;
#107 = DIRECTION ( 'NONE',  ( 0.0000000000000000000, 1.000000000000000000, 0.0000000000000000000 ) ) ;
#108 = AXIS2_PLACEMENT_3D ( 'NONE', #50, #214, #52 ) ;
#109 = FACE_OUTER_BOUND ( 'NONE', #19, .T. ) ;
#110 = ORIENTED_EDGE ( 'NONE', *, *, #299, .F. ) ;
#111 = DIRECTION ( 'NONE',  ( -2.382254525458724175E-15, -0.7071067811865452413, -0.7071067811865497932 ) ) ;
#112 = EDGE_LOOP ( 'NONE', ( #11, #272, #277, #185 ) ) ;
#113 = CC_DESIGN_PERSON_AND_ORGANIZATION_ASSIGNMENT ( #212, #78, ( #121 ) ) ;
#114 = CARTESIAN_POINT ( 'NONE',  ( 1.501336975702547217E-13, -5.265981236333618470E-15, 43.00000000000000000 ) ) ;
#115 = AXIS2_PLACEMENT_3D ( 'NONE', #77, #153, #221 ) ;
#116 = CARTESIAN_POINT ( 'NONE',  ( 3.840629472727446691E-14, -1.347111479062088405E-15, 11.00000000000000000 ) ) ;
#117 = EDGE_CURVE ( 'NONE', #230, #239, #23, .T. ) ;
#118 = PERSON_AND_ORGANIZATION ( #96, #49 ) ;
#119 = CONICAL_SURFACE ( 'NONE', #108, 0.8999999999999955813, 0.7853981633974452814 ) ;
#120 = AXIS2_PLACEMENT_3D ( 'NONE', #39, #169, #223 ) ;
#121 = PRODUCT ( '42869', '42869', '', ( #267 ) ) ;
#122 = LINE ( 'NONE', #250, #157 ) ;
#123 = DIRECTION ( 'NONE',  ( 3.491481338843133355E-15, -1.224646799147353207E-16, 1.000000000000000000 ) ) ;
#124 = DATE_TIME_ROLE ( 'classification_date' ) ;
#125 = CIRCLE ( 'NONE', #303, 0.8999999999999955813 ) ;
#126 = ADVANCED_FACE ( 'NONE', ( #320 ), #293, .T. ) ;
#127 = VERTEX_POINT ( 'NONE', #163 ) ;
#128 = AXIS2_PLACEMENT_3D ( 'NONE', #178, #271, #282 ) ;
#129 = DIRECTION ( 'NONE',  ( 0.0000000000000000000, 0.0000000000000000000, 1.000000000000000000 ) ) ;
#130 = EDGE_CURVE ( 'NONE', #127, #304, #337, .T. ) ;
#131 = LINE ( 'NONE', #75, #318 ) ;
#132 = PLANE ( 'NONE',  #106 ) ;
#133 = ORIENTED_EDGE ( 'NONE', *, *, #330, .F. ) ;
#134 = DIRECTION ( 'NONE',  ( -3.491481338843133355E-15, 1.224646799147353207E-16, -1.000000000000000000 ) ) ;
#135 = CIRCLE ( 'NONE', #234, 1.199999999999991518 ) ;
#136 = DIRECTION ( 'NONE',  ( 4.275831445896958607E-31, 1.000000000000000000, 1.224646799147353207E-16 ) ) ;
#137 = ADVANCED_FACE ( 'NONE', ( #170 ), #268, .T. ) ;
#138 = VERTEX_POINT ( 'NONE', #276 ) ;
#139 = ORIENTED_EDGE ( 'NONE', *, *, #258, .T. ) ;
#140 = ORIENTED_EDGE ( 'NONE', *, *, #191, .T. ) ;
#141 = VERTEX_POINT ( 'NONE', #225 ) ;
#142 = APPROVAL_PERSON_ORGANIZATION ( #329, #62, #273 ) ;
#143 = DIRECTION ( 'NONE',  ( -3.491481338843133355E-15, 1.224646799147353207E-16, -1.000000000000000000 ) ) ;
#144 = CC_DESIGN_APPROVAL ( #255, ( #297 ) ) ;
#145 = DATE_AND_TIME ( #35, #71 ) ;
#146 = PLANE ( 'NONE',  #120 ) ;
#147 = VECTOR ( 'NONE', #134, 1000.000000000000000 ) ;
#148 = PERSON_AND_ORGANIZATION ( #96, #49 ) ;
#149 = DIRECTION ( 'NONE',  ( -3.209883240645419509E-31, -1.000000000000000000, -9.035018104045944650E-17 ) ) ;
#150 = VECTOR ( 'NONE', #59, 1000.000000000000000 ) ;
#151 = ADVANCED_FACE ( 'NONE', ( #37 ), #172, .T. ) ;
#152 = CARTESIAN_POINT ( 'NONE',  ( 1.501336975702547217E-13, 0.8999999999999902522, 43.00000000000000000 ) ) ;
#153 = DIRECTION ( 'NONE',  ( -3.491481338843133355E-15, 1.224646799147353207E-16, -1.000000000000000000 ) ) ;
#154 = APPROVAL_STATUS ( 'not_yet_approved' ) ;
#155 = DIRECTION ( 'NONE',  ( 3.491481338843133355E-15, -1.224646799147353207E-16, 1.000000000000000000 ) ) ;
#156 = ADVANCED_FACE ( 'NONE', ( #61 ), #283, .F. ) ;
#157 = VECTOR ( 'NONE', #17, 1000.000000000000000 ) ;
#158 = ORIENTED_EDGE ( 'NONE', *, *, #200, .F. ) ;
#159 = DIRECTION ( 'NONE',  ( 0.0000000000000000000, 1.000000000000000000, 0.0000000000000000000 ) ) ;
#160 = MANIFOLD_SOLID_BREP ( 'Corps-Déplacer/Copier1[1]', #5 ) ;
#161 = CIRCLE ( 'NONE', #261, 1.199999999999990186 ) ;
#162 = VECTOR ( 'NONE', #66, 1000.000000000000000 ) ;
#163 = CARTESIAN_POINT ( 'NONE',  ( 2.060884116268317509E-14, -1.199999999999992628, 11.00000000000000000 ) ) ;
#164 = ORIENTED_EDGE ( 'NONE', *, *, #244, .T. ) ;
#165 = EDGE_CURVE ( 'NONE', #16, #138, #68, .T. ) ;
#166 = CARTESIAN_POINT ( 'NONE',  ( 0.0000000000000000000, 0.0000000000000000000, 0.0000000000000000000 ) ) ;
#167 = DIRECTION ( 'NONE',  ( -3.491481338843133355E-15, 1.224646799147353207E-16, -1.000000000000000000 ) ) ;
#168 =( GEOMETRIC_REPRESENTATION_CONTEXT ( 3 ) GLOBAL_UNCERTAINTY_ASSIGNED_CONTEXT ( ( #42 ) ) GLOBAL_UNIT_ASSIGNED_CONTEXT ( ( #291, #322, #253 ) ) REPRESENTATION_CONTEXT ( 'NONE', 'WORKASPACE' ) );
#169 = DIRECTION ( 'NONE',  ( 3.491481338843133355E-15, -1.224646799147353207E-16, 1.000000000000000000 ) ) ;
#170 = FACE_OUTER_BOUND ( 'NONE', #183, .T. ) ;
#171 = ORIENTED_EDGE ( 'NONE', *, *, #289, .F. ) ;
#172 = CYLINDRICAL_SURFACE ( 'NONE', #31, 1.199999999999990852 ) ;
#173 = CONICAL_SURFACE ( 'NONE', #24, 0.8999999999999955813, 0.7853981633974452814 ) ;
#174 = CARTESIAN_POINT ( 'NONE',  ( 1.490862531686017753E-13, -5.229241832359197610E-15, 42.69999999999999574 ) ) ;
#175 = ADVANCED_FACE ( 'NONE', ( #76 ), #173, .T. ) ;
#176 = DIRECTION ( 'NONE',  ( -3.491481338843133355E-15, 1.224646799147353207E-16, -1.000000000000000000 ) ) ;
#177 = AXIS2_PLACEMENT_3D ( 'NONE', #33, #86, #222 ) ;
#178 = CARTESIAN_POINT ( 'NONE',  ( 2.517472366296558601E-15, -8.830104405909609916E-17, 0.7210327428330741695 ) ) ;
#179 = ORIENTED_EDGE ( 'NONE', *, *, #130, .F. ) ;
#180 = DIRECTION ( 'NONE',  ( -3.491481338843133355E-15, 1.224646799147353207E-16, -1.000000000000000000 ) ) ;
#181 = EDGE_LOOP ( 'NONE', ( #296, #229, #158, #207 ) ) ;
#182 = AXIS2_PLACEMENT_3D ( 'NONE', #84, #328, #159 ) ;
#183 = EDGE_LOOP ( 'NONE', ( #321, #164, #14 ) ) ;
#184 = CC_DESIGN_DATE_AND_TIME_ASSIGNMENT ( #278, #38, ( #295 ) ) ;
#185 = ORIENTED_EDGE ( 'NONE', *, *, #263, .F. ) ;
#186 = PRODUCT_DEFINITION_SHAPE ( 'NONE', 'NONE',  #295 ) ;
#187 = DATE_AND_TIME ( #292, #22 ) ;
#188 = AXIS2_PLACEMENT_3D ( 'NONE', #327, #82, #136 ) ;
#189 = ORIENTED_EDGE ( 'NONE', *, *, #90, .F. ) ;
#190 = APPROVAL_STATUS ( 'not_yet_approved' ) ;
#191 = EDGE_CURVE ( 'NONE', #202, #16, #205, .T. ) ;
#192 = CARTESIAN_POINT ( 'NONE',  ( 1.490862531686017753E-13, -5.229241832359197610E-15, 42.69999999999999574 ) ) ;
#193 = EDGE_LOOP ( 'NONE', ( #139, #29 ) ) ;
#194 = CARTESIAN_POINT ( 'NONE',  ( 2.517472366296558207E-15, -1.199999999999990186, 0.7210327428330740585 ) ) ;
#195 = PRODUCT_RELATED_PRODUCT_CATEGORY ( 'detail', '', ( #121 ) ) ;
#196 = PERSON_AND_ORGANIZATION_ROLE ( 'design_supplier' ) ;
#197 = ORIENTED_EDGE ( 'NONE', *, *, #258, .F. ) ;
#198 = LOCAL_TIME ( 9, 22, 29.00000000000000000, #254 ) ;
#199 = CARTESIAN_POINT ( 'NONE',  ( 1.501336975702547217E-13, 6.748919021978245653E-33, 43.00000000000000000 ) ) ;
#200 = EDGE_CURVE ( 'NONE', #16, #230, #251, .T. ) ;
#201 = CARTESIAN_POINT ( 'NONE',  ( 2.664429982194240069E-15, 1.199999999999990186, 0.7210327428330742805 ) ) ;
#202 = VERTEX_POINT ( 'NONE', #307 ) ;
#203 = EDGE_LOOP ( 'NONE', ( #294, #94, #34 ) ) ;
#204 = COORDINATED_UNIVERSAL_TIME_OFFSET ( 1, 0, .AHEAD. ) ;
#205 = LINE ( 'NONE', #152, #162 ) ;
#206 = EDGE_CURVE ( 'NONE', #238, #141, #326, .T. ) ;
#207 = ORIENTED_EDGE ( 'NONE', *, *, #191, .F. ) ;
#208 = AXIS2_PLACEMENT_3D ( 'NONE', #192, #143, #30 ) ;
#209 = DIRECTION ( 'NONE',  ( -3.491481338843133355E-15, 1.224646799147353207E-16, -1.000000000000000000 ) ) ;
#210 = CARTESIAN_POINT ( 'NONE',  ( 0.0000000000000000000, 0.0000000000000000000, 0.0000000000000000000 ) ) ;
#211 = DIRECTION ( 'NONE',  ( 3.209883240645419509E-31, 1.000000000000000000, 9.035018104045944650E-17 ) ) ;
#212 = PERSON_AND_ORGANIZATION ( #96, #49 ) ;
#213 = CARTESIAN_POINT ( 'NONE',  ( 3.840629472727446691E-14, 1.199999999999990186, 11.00000000000000000 ) ) ;
#214 = DIRECTION ( 'NONE',  ( -3.491481338843133355E-15, 1.224646799147353207E-16, -1.000000000000000000 ) ) ;
#215 = AXIS2_PLACEMENT_3D ( 'NONE', #302, #123, #149 ) ;
#216 = ORIENTED_EDGE ( 'NONE', *, *, #1, .F. ) ;
#217 = EDGE_LOOP ( 'NONE', ( #133, #313, #140, #189 ) ) ;
#218 = CALENDAR_DATE ( 2021, 3, 9 ) ;
#219 = AXIS2_PLACEMENT_3D ( 'NONE', #116, #167, #274 ) ;
#220 = APPROVAL_DATE_TIME ( #187, #28 ) ;
#221 = DIRECTION ( 'NONE',  ( 4.275831445896958607E-31, 1.000000000000000000, 1.224646799147353207E-16 ) ) ;
#222 = DIRECTION ( 'NONE',  ( 0.0000000000000000000, 1.000000000000000000, 0.0000000000000000000 ) ) ;
#223 = DIRECTION ( 'NONE',  ( -4.275831445896958607E-31, -1.000000000000000000, -1.224646799147353207E-16 ) ) ;
#224 = ORIENTED_EDGE ( 'NONE', *, *, #90, .T. ) ;
#225 = CARTESIAN_POINT ( 'NONE',  ( 2.517472366296558207E-15, -1.199999999999990186, 0.7210327428330740585 ) ) ;
#226 = PRODUCT_DEFINITION_FORMATION_WITH_SPECIFIED_SOURCE ( 'ANY', '', #121, .NOT_KNOWN. ) ;
#227 = CARTESIAN_POINT ( 'NONE',  ( 0.0000000000000000000, 0.0000000000000000000, 0.0000000000000000000 ) ) ;
#228 = CARTESIAN_POINT ( 'NONE',  ( 2.517472366296558601E-15, -8.830104405909609916E-17, 0.7210327428330741695 ) ) ;
#229 = ORIENTED_EDGE ( 'NONE', *, *, #330, .T. ) ;
#230 = VERTEX_POINT ( 'NONE', #87 ) ;
#231 = APPROVAL_ROLE ( '' ) ;
#232 = AXIS2_PLACEMENT_3D ( 'NONE', #199, #46, #40 ) ;
#233 = CARTESIAN_POINT ( 'NONE',  ( 2.664429982194240069E-15, 1.199999999999990186, 0.7210327428330742805 ) ) ;
#234 = AXIS2_PLACEMENT_3D ( 'NONE', #252, #209, #25 ) ;
#235 = CC_DESIGN_PERSON_AND_ORGANIZATION_ASSIGNMENT ( #248, #331, ( #226 ) ) ;
#236 = CIRCLE ( 'NONE', #182, 1.199999999999991518 ) ;
#237 = ADVANCED_FACE ( 'NONE', ( #15 ), #146, .F. ) ;
#238 = VERTEX_POINT ( 'NONE', #201 ) ;
#239 = VERTEX_POINT ( 'NONE', #41 ) ;
#240 = EDGE_LOOP ( 'NONE', ( #334, #179 ) ) ;
#241 = CONICAL_SURFACE ( 'NONE', #45, 1.199999999999990186, 1.029744258676649871 ) ;
#242 = APPROVAL_DATE_TIME ( #145, #62 ) ;
#243 = DESIGN_CONTEXT ( 'detailed design', #83, 'design' ) ;
#244 = EDGE_CURVE ( 'NONE', #55, #141, #92, .T. ) ;
#245 = CARTESIAN_POINT ( 'NONE',  ( 0.0000000000000000000, 0.0000000000000000000, 0.0000000000000000000 ) ) ;
#246 = CARTESIAN_POINT ( 'NONE',  ( 1.469576158976810734E-16, -1.199999999999993294, -1.469576158976820841E-16 ) ) ;
#247 = LOCAL_TIME ( 9, 22, 29.00000000000000000, #85 ) ;
#248 = PERSON_AND_ORGANIZATION ( #96, #49 ) ;
#249 = APPLICATION_PROTOCOL_DEFINITION ( 'international standard', 'config_control_design', 1994, #265 ) ;
#250 = CARTESIAN_POINT ( 'NONE',  ( 1.469576158976807529E-16, -1.199999999999990852, -1.469576158976817636E-16 ) ) ;
#251 = CIRCLE ( 'NONE', #290, 1.199999999999995293 ) ;
#252 = CARTESIAN_POINT ( 'NONE',  ( 3.840629472727446691E-14, -1.347111479062088405E-15, 11.00000000000000000 ) ) ;
#253 =( NAMED_UNIT ( * ) SI_UNIT ( $, .STERADIAN. ) SOLID_ANGLE_UNIT ( ) );
#254 = COORDINATED_UNIVERSAL_TIME_OFFSET ( 1, 0, .AHEAD. ) ;
#255 = APPROVAL ( #65, 'UNSPECIFIED' ) ;
#256 = DATE_AND_TIME ( #285, #56 ) ;
#257 = CC_DESIGN_APPROVAL ( #62, ( #226 ) ) ;
#258 = EDGE_CURVE ( 'NONE', #138, #239, #60, .T. ) ;
#259 = DIRECTION ( 'NONE',  ( -3.209883240645419509E-31, -1.000000000000000000, -9.035018104045944650E-17 ) ) ;
#260 = ORIENTED_EDGE ( 'NONE', *, *, #263, .T. ) ;
#261 = AXIS2_PLACEMENT_3D ( 'NONE', #228, #102, #211 ) ;
#262 = PERSON_AND_ORGANIZATION ( #96, #49 ) ;
#263 = EDGE_CURVE ( 'NONE', #304, #238, #13, .T. ) ;
#264 = DIRECTION ( 'NONE',  ( 0.0000000000000000000, 1.000000000000000000, 0.0000000000000000000 ) ) ;
#265 = APPLICATION_CONTEXT ( 'configuration controlled 3d designs of mechanical parts and assemblies' ) ;
#266 = DIRECTION ( 'NONE',  ( -3.491481338843133355E-15, 1.224646799147353207E-16, -1.000000000000000000 ) ) ;
#267 = MECHANICAL_CONTEXT ( 'NONE', #265, 'mechanical' ) ;
#268 = CONICAL_SURFACE ( 'NONE', #215, 1.199999999999990186, 1.029744258676649871 ) ;
#269 = PERSON_AND_ORGANIZATION ( #96, #49 ) ;
#270 = DIRECTION ( 'NONE',  ( 4.275831445896957731E-31, 1.000000000000000000, 1.224646799147353207E-16 ) ) ;
#271 = DIRECTION ( 'NONE',  ( -3.491481338843133355E-15, 1.224646799147353207E-16, -1.000000000000000000 ) ) ;
#272 = ORIENTED_EDGE ( 'NONE', *, *, #289, .T. ) ;
#273 = APPROVAL_ROLE ( '' ) ;
#274 = DIRECTION ( 'NONE',  ( 0.0000000000000000000, 1.000000000000000000, 0.0000000000000000000 ) ) ;
#275 = CIRCLE ( 'NONE', #208, 1.199999999999995293 ) ;
#276 = CARTESIAN_POINT ( 'NONE',  ( 3.840629472727446691E-14, 1.199999999999990186, 11.00000000000000000 ) ) ;
#277 = ORIENTED_EDGE ( 'NONE', *, *, #206, .F. ) ;
#278 = DATE_AND_TIME ( #218, #247 ) ;
#279 = ORIENTED_EDGE ( 'NONE', *, *, #165, .T. ) ;
#280 = MANIFOLD_SOLID_BREP ( 'Corps-Déplacer/Copier1[2]', #44 ) ;
#281 = ORIENTED_EDGE ( 'NONE', *, *, #315, .F. ) ;
#282 = DIRECTION ( 'NONE',  ( 3.209883240645419509E-31, 1.000000000000000000, 9.035018104045944650E-17 ) ) ;
#283 = PLANE ( 'NONE',  #232 ) ;
#284 = EDGE_LOOP ( 'NONE', ( #335, #301, #197, #27 ) ) ;
#285 = CALENDAR_DATE ( 2021, 3, 9 ) ;
#286 = LINE ( 'NONE', #233, #6 ) ;
#287 = CC_DESIGN_PERSON_AND_ORGANIZATION_ASSIGNMENT ( #148, #305, ( #297 ) ) ;
#288 = APPLICATION_PROTOCOL_DEFINITION ( 'international standard', 'config_control_design', 1994, #83 ) ;
#289 = EDGE_CURVE ( 'NONE', #127, #141, #122, .T. ) ;
#290 = AXIS2_PLACEMENT_3D ( 'NONE', #174, #51, #98 ) ;
#291 =( LENGTH_UNIT ( ) NAMED_UNIT ( * ) SI_UNIT ( .MILLI., .METRE. ) );
#292 = CALENDAR_DATE ( 2021, 3, 9 ) ;
#293 = CYLINDRICAL_SURFACE ( 'NONE', #188, 1.199999999999993294 ) ;
#294 = ORIENTED_EDGE ( 'NONE', *, *, #244, .F. ) ;
#295 = PRODUCT_DEFINITION ( 'UNKNOWN', '', #226, #243 ) ;
#296 = ORIENTED_EDGE ( 'NONE', *, *, #315, .T. ) ;
#297 = SECURITY_CLASSIFICATION ( '', '', #47 ) ;
#298 = DIRECTION ( 'NONE',  ( 4.275831445896957731E-31, 1.000000000000000000, 1.224646799147353207E-16 ) ) ;
#299 = EDGE_CURVE ( 'NONE', #141, #238, #161, .T. ) ;
#300 = DIRECTION ( 'NONE',  ( -3.491481338843133355E-15, 1.224646799147353207E-16, -1.000000000000000000 ) ) ;
#301 = ORIENTED_EDGE ( 'NONE', *, *, #117, .T. ) ;
#302 = CARTESIAN_POINT ( 'NONE',  ( 2.517472366296558601E-15, -8.830104405909609916E-17, 0.7210327428330741695 ) ) ;
#303 = AXIS2_PLACEMENT_3D ( 'NONE', #114, #324, #107 ) ;
#304 = VERTEX_POINT ( 'NONE', #213 ) ;
#305 = PERSON_AND_ORGANIZATION_ROLE ( 'classification_officer' ) ;
#306 = CC_DESIGN_PERSON_AND_ORGANIZATION_ASSIGNMENT ( #269, #32, ( #295 ) ) ;
#307 = CARTESIAN_POINT ( 'NONE',  ( 1.501336975702547217E-13, 0.8999999999999902522, 43.00000000000000000 ) ) ;
#308 = VECTOR ( 'NONE', #300, 1000.000000000000000 ) ;
#309 = FACE_OUTER_BOUND ( 'NONE', #203, .T. ) ;
#310 = APPROVAL_PERSON_ORGANIZATION ( #118, #255, #231 ) ;
#311 = CC_DESIGN_DATE_AND_TIME_ASSIGNMENT ( #67, #124, ( #297 ) ) ;
#312 = ADVANCED_BREP_SHAPE_REPRESENTATION ( '42869', ( #160, #280, #333 ), #168 ) ;
#313 = ORIENTED_EDGE ( 'NONE', *, *, #323, .T. ) ;
#314 = DIRECTION ( 'NONE',  ( -3.491481338843133355E-15, 1.224646799147353207E-16, -1.000000000000000000 ) ) ;
#315 = EDGE_CURVE ( 'NONE', #202, #332, #63, .T. ) ;
#316 = CARTESIAN_POINT ( 'NONE',  ( 5.130997735076321776E-31, 1.199999999999993294, 1.469576158976815664E-16 ) ) ;
#317 = FACE_OUTER_BOUND ( 'NONE', #64, .T. ) ;
#318 = VECTOR ( 'NONE', #111, 1000.000000000000000 ) ;
#319 = CARTESIAN_POINT ( 'NONE',  ( 1.490862531686017753E-13, 1.199999999999990186, 42.69999999999999574 ) ) ;
#320 = FACE_OUTER_BOUND ( 'NONE', #284, .T. ) ;
#321 = ORIENTED_EDGE ( 'NONE', *, *, #99, .F. ) ;
#322 =( NAMED_UNIT ( * ) PLANE_ANGLE_UNIT ( ) SI_UNIT ( $, .RADIAN. ) );
#323 = EDGE_CURVE ( 'NONE', #332, #202, #125, .T. ) ;
#324 = DIRECTION ( 'NONE',  ( -3.491481338843133355E-15, 1.224646799147353207E-16, -1.000000000000000000 ) ) ;
#325 = CYLINDRICAL_SURFACE ( 'NONE', #91, 1.199999999999990852 ) ;
#326 = CIRCLE ( 'NONE', #128, 1.199999999999990186 ) ;
#327 = CARTESIAN_POINT ( 'NONE',  ( 0.0000000000000000000, 0.0000000000000000000, 0.0000000000000000000 ) ) ;
#328 = DIRECTION ( 'NONE',  ( -3.491481338843133355E-15, 1.224646799147353207E-16, -1.000000000000000000 ) ) ;
#329 = PERSON_AND_ORGANIZATION ( #96, #49 ) ;
#330 = EDGE_CURVE ( 'NONE', #332, #230, #131, .T. ) ;
#331 = PERSON_AND_ORGANIZATION_ROLE ( 'creator' ) ;
#332 = VERTEX_POINT ( 'NONE', #57 ) ;
#333 = AXIS2_PLACEMENT_3D ( 'NONE', #210, #129, #70 ) ;
#334 = ORIENTED_EDGE ( 'NONE', *, *, #79, .F. ) ;
#335 = ORIENTED_EDGE ( 'NONE', *, *, #200, .T. ) ;
#336 = CARTESIAN_POINT ( 'NONE',  ( 1.501336975702547217E-13, -5.265981236333618470E-15, 43.00000000000000000 ) ) ;
#337 = CIRCLE ( 'NONE', #177, 1.199999999999991518 ) ;
ENDSEC;
END-ISO-10303-21;
