ISO-10303-21;
HEADER;
FILE_DESCRIPTION (( 'STEP AP203' ),
    '1' );
FILE_NAME ('42866.step',
    '2021-09-02T13:22:53',
    ( '' ),
    ( '' ),
    'SwSTEP 2.0',
    'SolidWorks 2019',
    '' );
FILE_SCHEMA (( 'CONFIG_CONTROL_DESIGN' ));
ENDSEC;

DATA;
#1 = VERTEX_POINT ( 'NONE', #136 ) ;
#2 = AXIS2_PLACEMENT_3D ( 'NONE', #297, #151, #174 ) ;
#3 = DIRECTION ( 'NONE',  ( 1.903218546456023111E-15, 0.8571673007021096691, 0.5150380749100587074 ) ) ;
#4 = CC_DESIGN_APPROVAL ( #224, ( #282 ) ) ;
#5 = EDGE_LOOP ( 'NONE', ( #156, #29, #36 ) ) ;
#6 = CC_DESIGN_PERSON_AND_ORGANIZATION_ASSIGNMENT ( #32, #76, ( #331 ) ) ;
#7 = ORIENTED_EDGE ( 'NONE', *, *, #67, .F. ) ;
#8 = CARTESIAN_POINT ( 'NONE',  ( 2.775727664380290576E-13, 2.199999999999985079, 79.49999999999998579 ) ) ;
#9 = AXIS2_PLACEMENT_3D ( 'NONE', #298, #168, #138 ) ;
#10 = APPLICATION_CONTEXT ( 'configuration controlled 3d designs of mechanical parts and assemblies' ) ;
#11 = CARTESIAN_POINT ( 'NONE',  ( 2.775727664380290576E-13, -9.735942053221456900E-15, 79.49999999999998579 ) ) ;
#12 = DIRECTION ( 'NONE',  ( 4.275831445896958607E-31, 1.000000000000000000, 1.224646799147352961E-16 ) ) ;
#13 = DESIGN_CONTEXT ( 'detailed design', #10, 'design' ) ;
#14 = APPROVAL_DATE_TIME ( #325, #278 ) ;
#15 = LINE ( 'NONE', #212, #267 ) ;
#16 = PERSON_AND_ORGANIZATION ( #302, #85 ) ;
#17 = CARTESIAN_POINT ( 'NONE',  ( 2.793185071074506684E-13, -9.797174393178826052E-15, 80.00000000000000000 ) ) ;
#18 = FACE_OUTER_BOUND ( 'NONE', #99, .T. ) ;
#19 = CC_DESIGN_PERSON_AND_ORGANIZATION_ASSIGNMENT ( #16, #102, ( #146 ) ) ;
#20 = AXIS2_PLACEMENT_3D ( 'NONE', #41, #142, #327 ) ;
#21 = CC_DESIGN_APPROVAL ( #98, ( #195 ) ) ;
#22 = PERSON_AND_ORGANIZATION_ROLE ( 'classification_officer' ) ;
#23 = DATE_AND_TIME ( #122, #234 ) ;
#24 = ORIENTED_EDGE ( 'NONE', *, *, #84, .T. ) ;
#25 = EDGE_CURVE ( 'NONE', #230, #1, #233, .T. ) ;
#26 = CIRCLE ( 'NONE', #323, 2.199999999999985079 ) ;
#27 = LOCAL_TIME ( 15, 22, 53.00000000000000000, #123 ) ;
#28 = EDGE_LOOP ( 'NONE', ( #112, #303 ) ) ;
#29 = ORIENTED_EDGE ( 'NONE', *, *, #34, .T. ) ;
#30 = ORIENTED_EDGE ( 'NONE', *, *, #62, .T. ) ;
#31 = LINE ( 'NONE', #288, #330 ) ;
#32 = PERSON_AND_ORGANIZATION ( #302, #85 ) ;
#33 = CONICAL_SURFACE ( 'NONE', #244, 1.699999999999995071, 0.7853981633974334020 ) ;
#34 = EDGE_CURVE ( 'NONE', #311, #35, #31, .T. ) ;
#35 = VERTEX_POINT ( 'NONE', #258 ) ;
#36 = ORIENTED_EDGE ( 'NONE', *, *, #80, .T. ) ;
#37 = CALENDAR_DATE ( 2021, 2, 9 ) ;
#38 = DIRECTION ( 'NONE',  ( 0.0000000000000000000, 1.000000000000000000, 0.0000000000000000000 ) ) ;
#39 = CIRCLE ( 'NONE', #214, 2.199999999999994404 ) ;
#40 = LOCAL_TIME ( 15, 22, 53.00000000000000000, #95 ) ;
#41 = CARTESIAN_POINT ( 'NONE',  ( 4.615366004877033765E-15, -1.618852474416765269E-16, 1.321893361860638771 ) ) ;
#42 = EDGE_CURVE ( 'NONE', #311, #128, #232, .T. ) ;
#43 = LINE ( 'NONE', #167, #222 ) ;
#44 = CALENDAR_DATE ( 2021, 2, 9 ) ;
#45 = VECTOR ( 'NONE', #296, 1000.000000000000114 ) ;
#46 = PERSON_AND_ORGANIZATION ( #302, #85 ) ;
#47 = APPROVAL_PERSON_ORGANIZATION ( #55, #224, #74 ) ;
#48 = DIRECTION ( 'NONE',  ( -3.491481338843133355E-15, 1.224646799147353207E-16, -1.000000000000000000 ) ) ;
#49 = FACE_OUTER_BOUND ( 'NONE', #210, .T. ) ;
#50 = PRODUCT_DEFINITION_SHAPE ( 'NONE', 'NONE',  #282 ) ;
#51 = ADVANCED_FACE ( 'NONE', ( #110 ), #33, .T. ) ;
#52 = APPROVAL_ROLE ( '' ) ;
#53 = CARTESIAN_POINT ( 'NONE',  ( 2.793185071074506684E-13, 1.699999999999985301, 80.00000000000000000 ) ) ;
#54 = ORIENTED_EDGE ( 'NONE', *, *, #305, .F. ) ;
#55 = PERSON_AND_ORGANIZATION ( #302, #85 ) ;
#56 = ORIENTED_EDGE ( 'NONE', *, *, #165, .F. ) ;
#57 = CARTESIAN_POINT ( 'NONE',  ( 4.615366004877033765E-15, -1.618852474416765269E-16, 1.321893361860638771 ) ) ;
#58 = AXIS2_PLACEMENT_3D ( 'NONE', #181, #259, #160 ) ;
#59 = DIRECTION ( 'NONE',  ( 3.501690807976816226E-31, 1.000000000000000000, 9.856383386231925387E-17 ) ) ;
#60 = LOCAL_TIME ( 15, 22, 53.00000000000000000, #284 ) ;
#61 = DIRECTION ( 'NONE',  ( -3.491481338843133355E-15, 1.224646799147353207E-16, -1.000000000000000000 ) ) ;
#62 = EDGE_CURVE ( 'NONE', #128, #35, #114, .T. ) ;
#63 = CARTESIAN_POINT ( 'NONE',  ( 2.793185071074506684E-13, 1.274795815262560629E-32, 80.00000000000000000 ) ) ;
#64 = CARTESIAN_POINT ( 'NONE',  ( 2.775727664380290576E-13, -9.735942053221456900E-15, 79.49999999999998579 ) ) ;
#65 = FACE_OUTER_BOUND ( 'NONE', #316, .T. ) ;
#66 = CARTESIAN_POINT ( 'NONE',  ( 4.615366004877033765E-15, -1.618852474416765269E-16, 1.321893361860638771 ) ) ;
#67 = EDGE_CURVE ( 'NONE', #1, #230, #130, .T. ) ;
#68 = AXIS2_PLACEMENT_3D ( 'NONE', #307, #276, #180 ) ;
#69 = DATE_TIME_ROLE ( 'classification_date' ) ;
#70 = CALENDAR_DATE ( 2021, 2, 9 ) ;
#71 = AXIS2_PLACEMENT_3D ( 'NONE', #139, #237, #269 ) ;
#72 = EDGE_LOOP ( 'NONE', ( #283, #208, #206, #280 ) ) ;
#73 = CIRCLE ( 'NONE', #158, 1.699999999999995071 ) ;
#74 = APPROVAL_ROLE ( '' ) ;
#75 = ORIENTED_EDGE ( 'NONE', *, *, #162, .T. ) ;
#76 = PERSON_AND_ORGANIZATION_ROLE ( 'design_owner' ) ;
#77 = AXIS2_PLACEMENT_3D ( 'NONE', #105, #127, #178 ) ;
#78 = ORIENTED_EDGE ( 'NONE', *, *, #25, .T. ) ;
#79 = CARTESIAN_POINT ( 'NONE',  ( 2.793185071074506684E-13, -9.797174393178826052E-15, 80.00000000000000000 ) ) ;
#80 = EDGE_CURVE ( 'NONE', #35, #128, #26, .T. ) ;
#81 = APPROVAL_STATUS ( 'not_yet_approved' ) ;
#82 = EDGE_LOOP ( 'NONE', ( #219, #163, #161, #111 ) ) ;
#83 = APPLICATION_PROTOCOL_DEFINITION ( 'international standard', 'config_control_design', 1994, #287 ) ;
#84 = EDGE_CURVE ( 'NONE', #184, #254, #39, .T. ) ;
#85 = ORGANIZATION ( 'UNSPECIFIED', 'UNSPECIFIED', '' ) ;
#86 = ORIENTED_EDGE ( 'NONE', *, *, #42, .T. ) ;
#87 = CC_DESIGN_DATE_AND_TIME_ASSIGNMENT ( #213, #337, ( #282 ) ) ;
#88 = DIRECTION ( 'NONE',  ( -3.491481338843133355E-15, 1.224646799147353207E-16, -1.000000000000000000 ) ) ;
#89 = ADVANCED_FACE ( 'NONE', ( #65 ), #96, .F. ) ;
#90 = CARTESIAN_POINT ( 'NONE',  ( 1.640996229256272803E-13, 2.199999999999985079, 47.00000000000000000 ) ) ;
#91 = DIRECTION ( 'NONE',  ( -3.491481338843133355E-15, 1.224646799147353207E-16, -1.000000000000000000 ) ) ;
#92 = CC_DESIGN_PERSON_AND_ORGANIZATION_ASSIGNMENT ( #46, #246, ( #146 ) ) ;
#93 = DIRECTION ( 'NONE',  ( 3.491481338843133355E-15, -1.224646799147353207E-16, 1.000000000000000000 ) ) ;
#94 = CARTESIAN_POINT ( 'NONE',  ( 2.793185071074506684E-13, 1.699999999999985301, 80.00000000000000000 ) ) ;
#95 = COORDINATED_UNIVERSAL_TIME_OFFSET ( 1, 0, .AHEAD. ) ;
#96 = PLANE ( 'NONE',  #253 ) ;
#97 = CARTESIAN_POINT ( 'NONE',  ( 1.640996229256272803E-13, 1.649735760928027495E-32, 47.00000000000000000 ) ) ;
#98 = APPROVAL ( #304, 'UNSPECIFIED' ) ;
#99 = EDGE_LOOP ( 'NONE', ( #183, #75, #149, #293 ) ) ;
#100 = APPROVAL_PERSON_ORGANIZATION ( #129, #98, #52 ) ;
#101 = MANIFOLD_SOLID_BREP ( 'Corps-Déplacer/Copier1[2]', #201 ) ;
#102 = PERSON_AND_ORGANIZATION_ROLE ( 'design_supplier' ) ;
#103 = DIRECTION ( 'NONE',  ( -3.491481338843133355E-15, 1.224646799147353207E-16, -1.000000000000000000 ) ) ;
#104 = EDGE_CURVE ( 'NONE', #230, #35, #43, .T. ) ;
#105 = CARTESIAN_POINT ( 'NONE',  ( 4.615366004877033765E-15, -1.618852474416765269E-16, 1.321893361860638771 ) ) ;
#106 = COORDINATED_UNIVERSAL_TIME_OFFSET ( 1, 0, .AHEAD. ) ;
#107 = AXIS2_PLACEMENT_3D ( 'NONE', #57, #135, #59 ) ;
#108 = ADVANCED_FACE ( 'NONE', ( #264 ), #274, .T. ) ;
#109 = ORIENTED_EDGE ( 'NONE', *, *, #292, .F. ) ;
#110 = FACE_OUTER_BOUND ( 'NONE', #82, .T. ) ;
#111 = ORIENTED_EDGE ( 'NONE', *, *, #216, .F. ) ;
#112 = ORIENTED_EDGE ( 'NONE', *, *, #165, .T. ) ;
#113 = ADVANCED_FACE ( 'NONE', ( #217 ), #220, .F. ) ;
#114 = CIRCLE ( 'NONE', #107, 2.199999999999985079 ) ;
#115 = LINE ( 'NONE', #319, #215 ) ;
#116 = VECTOR ( 'NONE', #175, 1000.000000000000000 ) ;
#117 = DIRECTION ( 'NONE',  ( 0.0000000000000000000, 1.000000000000000000, 0.0000000000000000000 ) ) ;
#118 = DIRECTION ( 'NONE',  ( -3.491481338843133355E-15, 1.224646799147353207E-16, -1.000000000000000000 ) ) ;
#119 = APPROVAL_DATE_TIME ( #141, #224 ) ;
#120 = CARTESIAN_POINT ( 'NONE',  ( 2.211056169776405812E-13, -2.199999999999996181, 47.00000000000000000 ) ) ;
#121 = CC_DESIGN_SECURITY_CLASSIFICATION ( #195, ( #146 ) ) ;
#122 = CALENDAR_DATE ( 2021, 2, 9 ) ;
#123 = COORDINATED_UNIVERSAL_TIME_OFFSET ( 1, 0, .AHEAD. ) ;
#124 = FACE_OUTER_BOUND ( 'NONE', #187, .T. ) ;
#125 = EDGE_CURVE ( 'NONE', #308, #184, #15, .T. ) ;
#126 = CIRCLE ( 'NONE', #310, 2.199999999999994404 ) ;
#127 = DIRECTION ( 'NONE',  ( 3.491481338843133355E-15, -1.224646799147353207E-16, 1.000000000000000000 ) ) ;
#128 = VERTEX_POINT ( 'NONE', #291 ) ;
#129 = PERSON_AND_ORGANIZATION ( #302, #85 ) ;
#130 = CIRCLE ( 'NONE', #317, 2.199999999999990408 ) ;
#131 = APPROVAL_ROLE ( '' ) ;
#132 = ORIENTED_EDGE ( 'NONE', *, *, #261, .T. ) ;
#133 = EDGE_LOOP ( 'NONE', ( #54, #24, #309, #204 ) ) ;
#134 = DIRECTION ( 'NONE',  ( 1.798245827342160711E-15, -0.8571673007021097801, 0.5150380749100583744 ) ) ;
#135 = DIRECTION ( 'NONE',  ( -3.491481338843133355E-15, 1.224646799147353207E-16, -1.000000000000000000 ) ) ;
#136 = CARTESIAN_POINT ( 'NONE',  ( 1.640996229256272803E-13, 2.199999999999985079, 47.00000000000000000 ) ) ;
#137 = EDGE_CURVE ( 'NONE', #254, #184, #126, .T. ) ;
#138 = DIRECTION ( 'NONE',  ( 4.275831445896958607E-31, 1.000000000000000000, 1.224646799147352961E-16 ) ) ;
#139 = CARTESIAN_POINT ( 'NONE',  ( 0.0000000000000000000, 0.0000000000000000000, 0.0000000000000000000 ) ) ;
#140 = CLOSED_SHELL ( 'NONE', ( #51, #108, #113, #197, #312, #89 ) ) ;
#141 = DATE_AND_TIME ( #70, #60 ) ;
#142 = DIRECTION ( 'NONE',  ( 3.491481338843133355E-15, -1.224646799147353207E-16, 1.000000000000000000 ) ) ;
#143 = UNCERTAINTY_MEASURE_WITH_UNIT (LENGTH_MEASURE( 1.000000000000000082E-05 ), #225, 'distance_accuracy_value', 'NONE');
#144 = LINE ( 'NONE', #94, #45 ) ;
#145 = AXIS2_PLACEMENT_3D ( 'NONE', #218, #198, #12 ) ;
#146 = PRODUCT_DEFINITION_FORMATION_WITH_SPECIFIED_SOURCE ( 'ANY', '', #331, .NOT_KNOWN. ) ;
#147 = DIRECTION ( 'NONE',  ( 0.0000000000000000000, 1.000000000000000000, 0.0000000000000000000 ) ) ;
#148 = CARTESIAN_POINT ( 'NONE',  ( 2.786844428985736357E-13, -1.700000000000004841, 80.00000000000000000 ) ) ;
#149 = ORIENTED_EDGE ( 'NONE', *, *, #216, .T. ) ;
#150 = PERSON_AND_ORGANIZATION ( #302, #85 ) ;
#151 = DIRECTION ( 'NONE',  ( -3.491481338843133355E-15, 1.224646799147353207E-16, -1.000000000000000000 ) ) ;
#152 = AXIS2_PLACEMENT_3D ( 'NONE', #17, #48, #147 ) ;
#153 = ORIENTED_EDGE ( 'NONE', *, *, #80, .F. ) ;
#154 = DATE_AND_TIME ( #227, #171 ) ;
#155 = CARTESIAN_POINT ( 'NONE',  ( 0.0000000000000000000, 0.0000000000000000000, 0.0000000000000000000 ) ) ;
#156 = ORIENTED_EDGE ( 'NONE', *, *, #42, .F. ) ;
#157 = ADVANCED_FACE ( 'NONE', ( #266 ), #170, .T. ) ;
#158 = AXIS2_PLACEMENT_3D ( 'NONE', #192, #294, #265 ) ;
#159 = CC_DESIGN_PERSON_AND_ORGANIZATION_ASSIGNMENT ( #150, #22, ( #195 ) ) ;
#160 = DIRECTION ( 'NONE',  ( 0.0000000000000000000, 1.000000000000000000, 0.0000000000000000000 ) ) ;
#161 = ORIENTED_EDGE ( 'NONE', *, *, #137, .F. ) ;
#162 = EDGE_CURVE ( 'NONE', #308, #306, #209, .T. ) ;
#163 = ORIENTED_EDGE ( 'NONE', *, *, #125, .T. ) ;
#164 = PRODUCT_RELATED_PRODUCT_CATEGORY ( 'detail', '', ( #331 ) ) ;
#165 = EDGE_CURVE ( 'NONE', #334, #202, #262, .T. ) ;
#166 = CARTESIAN_POINT ( 'NONE',  ( 1.640996229256272803E-13, -5.755839955992560641E-15, 47.00000000000000000 ) ) ;
#167 = CARTESIAN_POINT ( 'NONE',  ( 2.694222958124152355E-16, -2.199999999999987743, -2.694222958124170597E-16 ) ) ;
#168 = DIRECTION ( 'NONE',  ( -3.491481338843133355E-15, 1.224646799147353207E-16, -1.000000000000000000 ) ) ;
#169 = DIRECTION ( 'NONE',  ( 4.275831445896958607E-31, 1.000000000000000000, 1.224646799147353207E-16 ) ) ;
#170 = CONICAL_SURFACE ( 'NONE', #20, 2.199999999999985079, 1.029744258676649427 ) ;
#171 = LOCAL_TIME ( 15, 22, 53.00000000000000000, #106 ) ;
#172 = CARTESIAN_POINT ( 'NONE',  ( 1.640996229256272803E-13, -5.755839955992560641E-15, 47.00000000000000000 ) ) ;
#173 = DIRECTION ( 'NONE',  ( -3.491481338843133355E-15, 1.224646799147353207E-16, -1.000000000000000000 ) ) ;
#174 = DIRECTION ( 'NONE',  ( 0.0000000000000000000, 1.000000000000000000, 0.0000000000000000000 ) ) ;
#175 = DIRECTION ( 'NONE',  ( -3.491481338843133355E-15, 1.224646799147353207E-16, -1.000000000000000000 ) ) ;
#176 = CARTESIAN_POINT ( 'NONE',  ( 2.211056169776405307E-13, -2.200000000000004174, 79.49999999999998579 ) ) ;
#177 =( NAMED_UNIT ( * ) SI_UNIT ( $, .STERADIAN. ) SOLID_ANGLE_UNIT ( ) );
#178 = DIRECTION ( 'NONE',  ( -3.501690807976816226E-31, -1.000000000000000000, -9.856383386231925387E-17 ) ) ;
#179 = ORIENTED_EDGE ( 'NONE', *, *, #305, .T. ) ;
#180 = DIRECTION ( 'NONE',  ( 0.0000000000000000000, 1.000000000000000000, 0.0000000000000000000 ) ) ;
#181 = CARTESIAN_POINT ( 'NONE',  ( 1.640996229256272803E-13, -5.755839955992560641E-15, 47.00000000000000000 ) ) ;
#182 = CONICAL_SURFACE ( 'NONE', #77, 2.199999999999985079, 1.029744258676649427 ) ;
#183 = ORIENTED_EDGE ( 'NONE', *, *, #125, .F. ) ;
#184 = VERTEX_POINT ( 'NONE', #176 ) ;
#185 = DIRECTION ( 'NONE',  ( -3.491481338843133355E-15, 1.224646799147353207E-16, -1.000000000000000000 ) ) ;
#186 = ADVANCED_FACE ( 'NONE', ( #49 ), #248, .T. ) ;
#187 = EDGE_LOOP ( 'NONE', ( #7, #313 ) ) ;
#188 = AXIS2_PLACEMENT_3D ( 'NONE', #223, #91, #245 ) ;
#189 = AXIS2_PLACEMENT_3D ( 'NONE', #257, #314, #207 ) ;
#190 = APPLICATION_PROTOCOL_DEFINITION ( 'international standard', 'config_control_design', 1994, #10 ) ;
#191 = ORIENTED_EDGE ( 'NONE', *, *, #137, .T. ) ;
#192 = CARTESIAN_POINT ( 'NONE',  ( 2.793185071074506684E-13, -9.797174393178826052E-15, 80.00000000000000000 ) ) ;
#193 = CARTESIAN_POINT ( 'NONE',  ( 9.406829180973277756E-31, 2.199999999999992628, 2.694222958124168625E-16 ) ) ;
#194 = AXIS2_PLACEMENT_3D ( 'NONE', #172, #103, #277 ) ;
#195 = SECURITY_CLASSIFICATION ( '', '', #199 ) ;
#196 = PERSON_AND_ORGANIZATION ( #302, #85 ) ;
#197 = ADVANCED_FACE ( 'NONE', ( #221 ), #241, .T. ) ;
#198 = DIRECTION ( 'NONE',  ( -3.491481338843133355E-15, 1.224646799147353207E-16, -1.000000000000000000 ) ) ;
#199 = SECURITY_CLASSIFICATION_LEVEL ( 'unclassified' ) ;
#200 = ORIENTED_EDGE ( 'NONE', *, *, #205, .F. ) ;
#201 = CLOSED_SHELL ( 'NONE', ( #251, #157, #299, #186, #328 ) ) ;
#202 = VERTEX_POINT ( 'NONE', #120 ) ;
#203 = FACE_OUTER_BOUND ( 'NONE', #5, .T. ) ;
#204 = ORIENTED_EDGE ( 'NONE', *, *, #301, .F. ) ;
#205 = EDGE_CURVE ( 'NONE', #254, #334, #322, .T. ) ;
#206 = ORIENTED_EDGE ( 'NONE', *, *, #62, .F. ) ;
#207 = DIRECTION ( 'NONE',  ( 1.000000000000000000, 0.0000000000000000000, 0.0000000000000000000 ) ) ;
#208 = ORIENTED_EDGE ( 'NONE', *, *, #104, .T. ) ;
#209 = CIRCLE ( 'NONE', #2, 1.699999999999995071 ) ;
#210 = EDGE_LOOP ( 'NONE', ( #285, #78, #132, #153 ) ) ;
#211 = CARTESIAN_POINT ( 'NONE',  ( 4.884788300689449987E-15, 2.199999999999985079, 1.321893361860638993 ) ) ;
#212 = CARTESIAN_POINT ( 'NONE',  ( 2.795266970633057005E-13, -1.700000000000004841, 80.00000000000000000 ) ) ;
#213 = DATE_AND_TIME ( #37, #27 ) ;
#214 = AXIS2_PLACEMENT_3D ( 'NONE', #11, #240, #38 ) ;
#215 = VECTOR ( 'NONE', #88, 1000.000000000000000 ) ;
#216 = EDGE_CURVE ( 'NONE', #306, #254, #144, .T. ) ;
#217 = FACE_OUTER_BOUND ( 'NONE', #28, .T. ) ;
#218 = CARTESIAN_POINT ( 'NONE',  ( 0.0000000000000000000, 0.0000000000000000000, 0.0000000000000000000 ) ) ;
#219 = ORIENTED_EDGE ( 'NONE', *, *, #292, .T. ) ;
#220 = PLANE ( 'NONE',  #226 ) ;
#221 = FACE_OUTER_BOUND ( 'NONE', #133, .T. ) ;
#222 = VECTOR ( 'NONE', #173, 1000.000000000000000 ) ;
#223 = CARTESIAN_POINT ( 'NONE',  ( 0.0000000000000000000, 0.0000000000000000000, 0.0000000000000000000 ) ) ;
#224 = APPROVAL ( #81, 'UNSPECIFIED' ) ;
#225 =( LENGTH_UNIT ( ) NAMED_UNIT ( * ) SI_UNIT ( .MILLI., .METRE. ) );
#226 = AXIS2_PLACEMENT_3D ( 'NONE', #239, #93, #243 ) ;
#227 = CALENDAR_DATE ( 2021, 2, 9 ) ;
#228 = CARTESIAN_POINT ( 'NONE',  ( 2.694222958124158764E-16, -2.199999999999992628, -2.694222958124177500E-16 ) ) ;
#229 =( GEOMETRIC_REPRESENTATION_CONTEXT ( 3 ) GLOBAL_UNCERTAINTY_ASSIGNED_CONTEXT ( ( #143 ) ) GLOBAL_UNIT_ASSIGNED_CONTEXT ( ( #225, #279, #177 ) ) REPRESENTATION_CONTEXT ( 'NONE', 'WORKASPACE' ) );
#230 = VERTEX_POINT ( 'NONE', #324 ) ;
#231 = ORIENTED_EDGE ( 'NONE', *, *, #34, .F. ) ;
#232 = LINE ( 'NONE', #211, #275 ) ;
#233 = CIRCLE ( 'NONE', #58, 2.199999999999990408 ) ;
#234 = LOCAL_TIME ( 15, 22, 53.00000000000000000, #332 ) ;
#235 = EDGE_LOOP ( 'NONE', ( #231, #86, #30 ) ) ;
#236 = CYLINDRICAL_SURFACE ( 'NONE', #9, 2.199999999999987743 ) ;
#237 = DIRECTION ( 'NONE',  ( -3.491481338843133355E-15, 1.224646799147353207E-16, -1.000000000000000000 ) ) ;
#238 = ADVANCED_BREP_SHAPE_REPRESENTATION ( '42866', ( #256, #101, #189 ), #229 ) ;
#239 = CARTESIAN_POINT ( 'NONE',  ( 1.640996229256272803E-13, 1.649735760928027495E-32, 47.00000000000000000 ) ) ;
#240 = DIRECTION ( 'NONE',  ( -3.491481338843133355E-15, 1.224646799147353207E-16, -1.000000000000000000 ) ) ;
#241 = CYLINDRICAL_SURFACE ( 'NONE', #188, 2.199999999999992628 ) ;
#242 = PERSON_AND_ORGANIZATION_ROLE ( 'creator' ) ;
#243 = DIRECTION ( 'NONE',  ( -4.275831445896958607E-31, -1.000000000000000000, -1.224646799147353207E-16 ) ) ;
#244 = AXIS2_PLACEMENT_3D ( 'NONE', #79, #185, #286 ) ;
#245 = DIRECTION ( 'NONE',  ( 4.275831445896958607E-31, 1.000000000000000000, 1.224646799147353454E-16 ) ) ;
#246 = PERSON_AND_ORGANIZATION_ROLE ( 'creator' ) ;
#247 = EDGE_LOOP ( 'NONE', ( #191, #179, #56, #200 ) ) ;
#248 = CYLINDRICAL_SURFACE ( 'NONE', #145, 2.199999999999987743 ) ;
#249 = CC_DESIGN_APPROVAL ( #278, ( #146 ) ) ;
#250 = SHAPE_DEFINITION_REPRESENTATION ( #50, #238 ) ;
#251 = ADVANCED_FACE ( 'NONE', ( #273 ), #236, .T. ) ;
#252 = APPROVAL_STATUS ( 'not_yet_approved' ) ;
#253 = AXIS2_PLACEMENT_3D ( 'NONE', #63, #271, #169 ) ;
#254 = VERTEX_POINT ( 'NONE', #8 ) ;
#255 = ORIENTED_EDGE ( 'NONE', *, *, #162, .F. ) ;
#256 = MANIFOLD_SOLID_BREP ( 'Corps-Déplacer/Copier1[1]', #140 ) ;
#257 = CARTESIAN_POINT ( 'NONE',  ( 0.0000000000000000000, 0.0000000000000000000, 0.0000000000000000000 ) ) ;
#258 = CARTESIAN_POINT ( 'NONE',  ( 4.615366004877032977E-15, -2.199999999999985079, 1.321893361860638549 ) ) ;
#259 = DIRECTION ( 'NONE',  ( -3.491481338843133355E-15, 1.224646799147353207E-16, -1.000000000000000000 ) ) ;
#260 = MECHANICAL_CONTEXT ( 'NONE', #287, 'mechanical' ) ;
#261 = EDGE_CURVE ( 'NONE', #1, #128, #115, .T. ) ;
#262 = CIRCLE ( 'NONE', #194, 2.199999999999990408 ) ;
#263 = DIRECTION ( 'NONE',  ( -3.491481338843133355E-15, 1.224646799147353207E-16, -1.000000000000000000 ) ) ;
#264 = FACE_OUTER_BOUND ( 'NONE', #247, .T. ) ;
#265 = DIRECTION ( 'NONE',  ( 0.0000000000000000000, 1.000000000000000000, 0.0000000000000000000 ) ) ;
#266 = FACE_OUTER_BOUND ( 'NONE', #235, .T. ) ;
#267 = VECTOR ( 'NONE', #315, 1000.000000000000000 ) ;
#268 = CIRCLE ( 'NONE', #68, 2.199999999999990408 ) ;
#269 = DIRECTION ( 'NONE',  ( 4.275831445896958607E-31, 1.000000000000000000, 1.224646799147353454E-16 ) ) ;
#270 = CC_DESIGN_DATE_AND_TIME_ASSIGNMENT ( #23, #69, ( #195 ) ) ;
#271 = DIRECTION ( 'NONE',  ( -3.491481338843133355E-15, 1.224646799147353207E-16, -1.000000000000000000 ) ) ;
#272 = DIRECTION ( 'NONE',  ( 3.491481338843133355E-15, -1.224646799147353207E-16, 1.000000000000000000 ) ) ;
#273 = FACE_OUTER_BOUND ( 'NONE', #72, .T. ) ;
#274 = CYLINDRICAL_SURFACE ( 'NONE', #71, 2.199999999999992628 ) ;
#275 = VECTOR ( 'NONE', #3, 1000.000000000000114 ) ;
#276 = DIRECTION ( 'NONE',  ( -3.491481338843133355E-15, 1.224646799147353207E-16, -1.000000000000000000 ) ) ;
#277 = DIRECTION ( 'NONE',  ( 0.0000000000000000000, 1.000000000000000000, 0.0000000000000000000 ) ) ;
#278 = APPROVAL ( #252, 'UNSPECIFIED' ) ;
#279 =( NAMED_UNIT ( * ) PLANE_ANGLE_UNIT ( ) SI_UNIT ( $, .RADIAN. ) );
#280 = ORIENTED_EDGE ( 'NONE', *, *, #261, .F. ) ;
#281 = LINE ( 'NONE', #228, #116 ) ;
#282 = PRODUCT_DEFINITION ( 'UNKNOWN', '', #146, #13 ) ;
#283 = ORIENTED_EDGE ( 'NONE', *, *, #67, .T. ) ;
#284 = COORDINATED_UNIVERSAL_TIME_OFFSET ( 1, 0, .AHEAD. ) ;
#285 = ORIENTED_EDGE ( 'NONE', *, *, #104, .F. ) ;
#286 = DIRECTION ( 'NONE',  ( 0.0000000000000000000, 1.000000000000000000, 0.0000000000000000000 ) ) ;
#287 = APPLICATION_CONTEXT ( 'configuration controlled 3d designs of mechanical parts and assemblies' ) ;
#288 = CARTESIAN_POINT ( 'NONE',  ( 4.615366004877032977E-15, -2.199999999999985079, 1.321893361860638549 ) ) ;
#289 = APPROVAL_PERSON_ORGANIZATION ( #326, #278, #131 ) ;
#290 = DIRECTION ( 'NONE',  ( -3.491481338843133355E-15, 1.224646799147353207E-16, -1.000000000000000000 ) ) ;
#291 = CARTESIAN_POINT ( 'NONE',  ( 4.884788300689449987E-15, 2.199999999999985079, 1.321893361860638993 ) ) ;
#292 = EDGE_CURVE ( 'NONE', #306, #308, #73, .T. ) ;
#293 = ORIENTED_EDGE ( 'NONE', *, *, #84, .F. ) ;
#294 = DIRECTION ( 'NONE',  ( -3.491481338843133355E-15, 1.224646799147353207E-16, -1.000000000000000000 ) ) ;
#295 = AXIS2_PLACEMENT_3D ( 'NONE', #97, #272, #300 ) ;
#296 = DIRECTION ( 'NONE',  ( -2.468850131082301631E-15, 0.7071067811865370256, -0.7071067811865578978 ) ) ;
#297 = CARTESIAN_POINT ( 'NONE',  ( 2.793185071074506684E-13, -9.797174393178826052E-15, 80.00000000000000000 ) ) ;
#298 = CARTESIAN_POINT ( 'NONE',  ( 0.0000000000000000000, 0.0000000000000000000, 0.0000000000000000000 ) ) ;
#299 = ADVANCED_FACE ( 'NONE', ( #203 ), #182, .T. ) ;
#300 = DIRECTION ( 'NONE',  ( -4.275831445896958607E-31, -1.000000000000000000, -1.224646799147353207E-16 ) ) ;
#301 = EDGE_CURVE ( 'NONE', #202, #334, #268, .T. ) ;
#302 = PERSON ( 'UNSPECIFIED', 'UNSPECIFIED', 'UNSPECIFIED', ('UNSPECIFIED'), ('UNSPECIFIED'), ('UNSPECIFIED') ) ;
#303 = ORIENTED_EDGE ( 'NONE', *, *, #301, .T. ) ;
#304 = APPROVAL_STATUS ( 'not_yet_approved' ) ;
#305 = EDGE_CURVE ( 'NONE', #184, #202, #281, .T. ) ;
#306 = VERTEX_POINT ( 'NONE', #53 ) ;
#307 = CARTESIAN_POINT ( 'NONE',  ( 1.640996229256272803E-13, -5.755839955992560641E-15, 47.00000000000000000 ) ) ;
#308 = VERTEX_POINT ( 'NONE', #148 ) ;
#309 = ORIENTED_EDGE ( 'NONE', *, *, #205, .T. ) ;
#310 = AXIS2_PLACEMENT_3D ( 'NONE', #64, #290, #117 ) ;
#311 = VERTEX_POINT ( 'NONE', #155 ) ;
#312 = ADVANCED_FACE ( 'NONE', ( #18 ), #336, .T. ) ;
#313 = ORIENTED_EDGE ( 'NONE', *, *, #25, .F. ) ;
#314 = DIRECTION ( 'NONE',  ( 0.0000000000000000000, 0.0000000000000000000, 1.000000000000000000 ) ) ;
#315 = DIRECTION ( 'NONE',  ( -2.382254525458754546E-15, -0.7071067811865369146, -0.7071067811865582309 ) ) ;
#316 = EDGE_LOOP ( 'NONE', ( #109, #255 ) ) ;
#317 = AXIS2_PLACEMENT_3D ( 'NONE', #166, #263, #318 ) ;
#318 = DIRECTION ( 'NONE',  ( 0.0000000000000000000, 1.000000000000000000, 0.0000000000000000000 ) ) ;
#319 = CARTESIAN_POINT ( 'NONE',  ( 9.406829180973256736E-31, 2.199999999999987743, 2.694222958124161722E-16 ) ) ;
#320 = CC_DESIGN_PERSON_AND_ORGANIZATION_ASSIGNMENT ( #196, #242, ( #282 ) ) ;
#321 = DIRECTION ( 'NONE',  ( 3.501690807976816226E-31, 1.000000000000000000, 9.856383386231925387E-17 ) ) ;
#322 = LINE ( 'NONE', #193, #335 ) ;
#323 = AXIS2_PLACEMENT_3D ( 'NONE', #66, #61, #321 ) ;
#324 = CARTESIAN_POINT ( 'NONE',  ( 8.462691676106436382E-14, -2.199999999999996181, 47.00000000000000000 ) ) ;
#325 = DATE_AND_TIME ( #44, #40 ) ;
#326 = PERSON_AND_ORGANIZATION ( #302, #85 ) ;
#327 = DIRECTION ( 'NONE',  ( -3.501690807976816226E-31, -1.000000000000000000, -9.856383386231925387E-17 ) ) ;
#328 = ADVANCED_FACE ( 'NONE', ( #124 ), #329, .T. ) ;
#329 = PLANE ( 'NONE',  #295 ) ;
#330 = VECTOR ( 'NONE', #134, 1000.000000000000000 ) ;
#331 = PRODUCT ( '42866', '42866', '', ( #260 ) ) ;
#332 = COORDINATED_UNIVERSAL_TIME_OFFSET ( 1, 0, .AHEAD. ) ;
#333 = APPROVAL_DATE_TIME ( #154, #98 ) ;
#334 = VERTEX_POINT ( 'NONE', #90 ) ;
#335 = VECTOR ( 'NONE', #118, 1000.000000000000000 ) ;
#336 = CONICAL_SURFACE ( 'NONE', #152, 1.699999999999995071, 0.7853981633974334020 ) ;
#337 = DATE_TIME_ROLE ( 'creation_date' ) ;
ENDSEC;
END-ISO-10303-21;
