ISO-10303-21;
HEADER;
FILE_DESCRIPTION (( 'STEP AP203' ),
    '1' );
FILE_NAME ('42846.step',
    '2021-11-01T09:16:20',
    ( '' ),
    ( '' ),
    'SwSTEP 2.0',
    'SolidWorks 2019',
    '' );
FILE_SCHEMA (( 'CONFIG_CONTROL_DESIGN' ));
ENDSEC;

DATA;
#1 = CARTESIAN_POINT ( 'NONE',  ( 1.326762908760390423E-13, -4.653657836759941941E-15, 38.00000000000000000 ) ) ;
#2 = PLANE ( 'NONE',  #16 ) ;
#3 = DIRECTION ( 'NONE',  ( -3.491481338843133355E-15, 1.224646799147353207E-16, -1.000000000000000000 ) ) ;
#4 = LOCAL_TIME ( 10, 16, 20.00000000000000000, #128 ) ;
#5 = DIRECTION ( 'NONE',  ( -3.491481338843133355E-15, 1.219242935835426903E-16, -1.000000000000000000 ) ) ;
#6 = DIRECTION ( 'NONE',  ( 4.275831445896958607E-31, 1.000000000000000000, 1.224646799147353454E-16 ) ) ;
#7 = DATE_AND_TIME ( #26, #53 ) ;
#8 = DIRECTION ( 'NONE',  ( 1.000000000000000000, 0.0000000000000000000, 0.0000000000000000000 ) ) ;
#9 = CARTESIAN_POINT ( 'NONE',  ( 6.982962677686266711E-15, -0.4750000000000001443, 2.000000000000000000 ) ) ;
#10 = ADVANCED_FACE ( 'NONE', ( #170, #81 ), #173, .T. ) ;
#11 = CIRCLE ( 'NONE', #216, 0.4749999999999997558 ) ;
#12 = APPROVAL_ROLE ( '' ) ;
#13 = APPLICATION_CONTEXT ( 'configuration controlled 3d designs of mechanical parts and assemblies' ) ;
#14 = EDGE_LOOP ( 'NONE', ( #18 ) ) ;
#15 = CC_DESIGN_DATE_AND_TIME_ASSIGNMENT ( #207, #58, ( #138 ) ) ;
#16 = AXIS2_PLACEMENT_3D ( 'NONE', #209, #154, #42 ) ;
#17 = DATE_AND_TIME ( #33, #194 ) ;
#18 = ORIENTED_EDGE ( 'NONE', *, *, #78, .F. ) ;
#19 = AXIS2_PLACEMENT_3D ( 'NONE', #1, #66, #82 ) ;
#20 = APPROVAL_PERSON_ORGANIZATION ( #74, #93, #39 ) ;
#21 = CARTESIAN_POINT ( 'NONE',  ( 6.982962677686266711E-15, -2.438485871670853805E-16, 2.000000000000000000 ) ) ;
#22 = CYLINDRICAL_SURFACE ( 'NONE', #226, 0.4749999999999998113 ) ;
#23 = CC_DESIGN_PERSON_AND_ORGANIZATION_ASSIGNMENT ( #124, #132, ( #160 ) ) ;
#24 = DIRECTION ( 'NONE',  ( 0.0000000000000000000, 1.000000000000000000, 0.0000000000000000000 ) ) ;
#25 = DIRECTION ( 'NONE',  ( 0.0000000000000000000, -1.000000000000000000, 0.0000000000000000000 ) ) ;
#26 = CALENDAR_DATE ( 2021, 1, 11 ) ;
#27 = DIRECTION ( 'NONE',  ( 4.275831445896958607E-31, 1.000000000000000000, 1.224646799147353207E-16 ) ) ;
#28 = VERTEX_POINT ( 'NONE', #234 ) ;
#29 = FACE_OUTER_BOUND ( 'NONE', #241, .T. ) ;
#30 = DIRECTION ( 'NONE',  ( -4.256963957985713268E-31, -1.000000000000000000, -1.219242935835428628E-16 ) ) ;
#31 = AXIS2_PLACEMENT_3D ( 'NONE', #72, #202, #108 ) ;
#32 = DESIGN_CONTEXT ( 'detailed design', #13, 'design' ) ;
#33 = CALENDAR_DATE ( 2021, 1, 11 ) ;
#34 = ADVANCED_FACE ( 'NONE', ( #137, #192 ), #225, .F. ) ;
#35 = COORDINATED_UNIVERSAL_TIME_OFFSET ( 1, 0, .AHEAD. ) ;
#36 = EDGE_LOOP ( 'NONE', ( #135 ) ) ;
#37 = APPROVAL_ROLE ( '' ) ;
#38 = PRODUCT_DEFINITION_SHAPE ( 'NONE', 'NONE',  #71 ) ;
#39 = APPROVAL_ROLE ( '' ) ;
#40 = ORIENTED_EDGE ( 'NONE', *, *, #187, .T. ) ;
#41 = EDGE_LOOP ( 'NONE', ( #168 ) ) ;
#42 = DIRECTION ( 'NONE',  ( -4.275831445896958607E-31, -1.000000000000000000, -1.224646799147353207E-16 ) ) ;
#43 = PLANE ( 'NONE',  #152 ) ;
#44 = ADVANCED_FACE ( 'NONE', ( #118 ), #2, .F. ) ;
#45 = DIRECTION ( 'NONE',  ( -3.491481338843133355E-15, 1.224646799147353207E-16, -1.000000000000000000 ) ) ;
#46 = DIRECTION ( 'NONE',  ( 0.0000000000000000000, -1.000000000000000000, 0.0000000000000000000 ) ) ;
#47 = CIRCLE ( 'NONE', #67, 1.499999999999990674 ) ;
#48 = DIRECTION ( 'NONE',  ( 0.0000000000000000000, -1.000000000000000000, 0.0000000000000000000 ) ) ;
#49 = CC_DESIGN_APPROVAL ( #93, ( #160 ) ) ;
#50 = LOCAL_TIME ( 10, 16, 20.00000000000000000, #188 ) ;
#51 = VERTEX_POINT ( 'NONE', #105 ) ;
#52 = CARTESIAN_POINT ( 'NONE',  ( 2.125843254876063851E-14, -1.499999999999991340, 6.088657072932947223 ) ) ;
#53 = LOCAL_TIME ( 10, 16, 20.00000000000000000, #119 ) ;
#54 = EDGE_CURVE ( 'NONE', #200, #200, #236, .T. ) ;
#55 = DIRECTION ( 'NONE',  ( 0.0000000000000000000, 0.0000000000000000000, 1.000000000000000000 ) ) ;
#56 = CONICAL_SURFACE ( 'NONE', #79, 1.199999999999993738, 0.7853981633974439491 ) ;
#57 = ORIENTED_EDGE ( 'NONE', *, *, #78, .T. ) ;
#58 = DATE_TIME_ROLE ( 'classification_date' ) ;
#59 = ORIENTED_EDGE ( 'NONE', *, *, #164, .F. ) ;
#60 = DATE_AND_TIME ( #149, #4 ) ;
#61 = EDGE_LOOP ( 'NONE', ( #222 ) ) ;
#62 = CIRCLE ( 'NONE', #193, 0.4749999999999999223 ) ;
#63 = DIRECTION ( 'NONE',  ( -4.275831445896958607E-31, -1.000000000000000000, -1.224646799147353207E-16 ) ) ;
#64 = FACE_BOUND ( 'NONE', #36, .T. ) ;
#65 = CC_DESIGN_PERSON_AND_ORGANIZATION_ASSIGNMENT ( #230, #70, ( #206 ) ) ;
#66 = DIRECTION ( 'NONE',  ( -3.491481338843133355E-15, 1.224646799147353207E-16, -1.000000000000000000 ) ) ;
#67 = AXIS2_PLACEMENT_3D ( 'NONE', #229, #5, #46 ) ;
#68 = APPROVAL_DATE_TIME ( #120, #171 ) ;
#69 = DIRECTION ( 'NONE',  ( 3.491481338843133355E-15, -1.219242935835426903E-16, 1.000000000000000000 ) ) ;
#70 = PERSON_AND_ORGANIZATION_ROLE ( 'design_owner' ) ;
#71 = PRODUCT_DEFINITION ( 'UNKNOWN', '', #160, #32 ) ;
#72 = CARTESIAN_POINT ( 'NONE',  ( 6.982962677686266711E-15, 1.124819836996384311E-32, 2.000000000000000000 ) ) ;
#73 = AXIS2_PLACEMENT_3D ( 'NONE', #21, #115, #175 ) ;
#74 = PERSON_AND_ORGANIZATION ( #235, #231 ) ;
#75 = ORIENTED_EDGE ( 'NONE', *, *, #54, .T. ) ;
#76 = PERSON_AND_ORGANIZATION_ROLE ( 'classification_officer' ) ;
#77 = ORIENTED_EDGE ( 'NONE', *, *, #187, .F. ) ;
#78 = EDGE_CURVE ( 'NONE', #90, #90, #62, .T. ) ;
#79 = AXIS2_PLACEMENT_3D ( 'NONE', #117, #45, #86 ) ;
#80 = EDGE_LOOP ( 'NONE', ( #57 ) ) ;
#81 = FACE_OUTER_BOUND ( 'NONE', #41, .T. ) ;
#82 = DIRECTION ( 'NONE',  ( 0.0000000000000000000, 1.000000000000000000, 0.0000000000000000000 ) ) ;
#83 = CIRCLE ( 'NONE', #19, 1.199999999999993738 ) ;
#84 = DIRECTION ( 'NONE',  ( 3.491481338843133355E-15, -1.219242935835426903E-16, 1.000000000000000000 ) ) ;
#85 = CARTESIAN_POINT ( 'NONE',  ( 0.0000000000000000000, 0.0000000000000000000, 0.0000000000000000000 ) ) ;
#86 = DIRECTION ( 'NONE',  ( 0.0000000000000000000, 1.000000000000000000, 0.0000000000000000000 ) ) ;
#87 = DATE_TIME_ROLE ( 'creation_date' ) ;
#88 = CC_DESIGN_APPROVAL ( #159, ( #138 ) ) ;
#89 = APPLICATION_PROTOCOL_DEFINITION ( 'international standard', 'config_control_design', 1994, #143 ) ;
#90 = VERTEX_POINT ( 'NONE', #9 ) ;
#91 = PLANE ( 'NONE',  #31 ) ;
#92 = CIRCLE ( 'NONE', #73, 0.4749999999999999223 ) ;
#93 = APPROVAL ( #127, 'UNSPECIFIED' ) ;
#94 = COORDINATED_UNIVERSAL_TIME_OFFSET ( 1, 0, .AHEAD. ) ;
#95 = PERSON_AND_ORGANIZATION ( #235, #231 ) ;
#96 = CLOSED_SHELL ( 'NONE', ( #228, #190, #103 ) ) ;
#97 = PERSON_AND_ORGANIZATION_ROLE ( 'creator' ) ;
#98 = EDGE_LOOP ( 'NONE', ( #150 ) ) ;
#99 = DIRECTION ( 'NONE',  ( 3.491481338843133355E-15, -1.219242935835426903E-16, 1.000000000000000000 ) ) ;
#100 = PLANE ( 'NONE',  #131 ) ;
#101 = LOCAL_TIME ( 10, 16, 20.00000000000000000, #94 ) ;
#102 = CARTESIAN_POINT ( 'NONE',  ( -1.924129419174264339E-30, 6.748937501461144163E-32, -5.510925685805913103E-16 ) ) ;
#103 = ADVANCED_FACE ( 'NONE', ( #114 ), #43, .F. ) ;
#104 = FACE_OUTER_BOUND ( 'NONE', #243, .T. ) ;
#105 = CARTESIAN_POINT ( 'NONE',  ( 8.790286409911516780E-15, -0.5431483474218603558, 2.517638090205026824 ) ) ;
#106 = ADVANCED_FACE ( 'NONE', ( #227, #104 ), #212, .T. ) ;
#107 =( GEOMETRIC_REPRESENTATION_CONTEXT ( 3 ) GLOBAL_UNCERTAINTY_ASSIGNED_CONTEXT ( ( #221 ) ) GLOBAL_UNIT_ASSIGNED_CONTEXT ( ( #238, #163, #201 ) ) REPRESENTATION_CONTEXT ( 'NONE', 'WORKASPACE' ) );
#108 = DIRECTION ( 'NONE',  ( -4.275831445896958607E-31, -1.000000000000000000, -1.224646799147353207E-16 ) ) ;
#109 = EDGE_LOOP ( 'NONE', ( #75 ) ) ;
#110 = APPROVAL_DATE_TIME ( #60, #159 ) ;
#111 = ORIENTED_EDGE ( 'NONE', *, *, #126, .T. ) ;
#112 = SHAPE_DEFINITION_REPRESENTATION ( #38, #215 ) ;
#113 = PRODUCT_RELATED_PRODUCT_CATEGORY ( 'detail', '', ( #206 ) ) ;
#114 = FACE_OUTER_BOUND ( 'NONE', #208, .T. ) ;
#115 = DIRECTION ( 'NONE',  ( 3.491481338843133355E-15, -1.219242935835426903E-16, 1.000000000000000000 ) ) ;
#116 = FACE_OUTER_BOUND ( 'NONE', #129, .T. ) ;
#117 = CARTESIAN_POINT ( 'NONE',  ( 1.326762908760390423E-13, -4.653657836759941941E-15, 38.00000000000000000 ) ) ;
#118 = FACE_OUTER_BOUND ( 'NONE', #14, .T. ) ;
#119 = COORDINATED_UNIVERSAL_TIME_OFFSET ( 1, 0, .AHEAD. ) ;
#120 = DATE_AND_TIME ( #181, #101 ) ;
#121 = VERTEX_POINT ( 'NONE', #166 ) ;
#122 = PERSON_AND_ORGANIZATION ( #235, #231 ) ;
#123 = CC_DESIGN_APPROVAL ( #171, ( #71 ) ) ;
#124 = PERSON_AND_ORGANIZATION ( #235, #231 ) ;
#125 = ORIENTED_EDGE ( 'NONE', *, *, #233, .F. ) ;
#126 = EDGE_CURVE ( 'NONE', #184, #184, #92, .T. ) ;
#127 = APPROVAL_STATUS ( 'not_yet_approved' ) ;
#128 = COORDINATED_UNIVERSAL_TIME_OFFSET ( 1, 0, .AHEAD. ) ;
#129 = EDGE_LOOP ( 'NONE', ( #240 ) ) ;
#130 = AXIS2_PLACEMENT_3D ( 'NONE', #136, #141, #214 ) ;
#131 = AXIS2_PLACEMENT_3D ( 'NONE', #177, #3, #27 ) ;
#132 = PERSON_AND_ORGANIZATION_ROLE ( 'design_supplier' ) ;
#133 = MANIFOLD_SOLID_BREP ( 'Corps-Déplacer/Copier1[1]', #147 ) ;
#134 = CC_DESIGN_DATE_AND_TIME_ASSIGNMENT ( #7, #87, ( #71 ) ) ;
#135 = ORIENTED_EDGE ( 'NONE', *, *, #156, .T. ) ;
#136 = CARTESIAN_POINT ( 'NONE',  ( 6.982962677686265133E-15, -4.336808689942017736E-16, 1.999999999999999556 ) ) ;
#137 = FACE_OUTER_BOUND ( 'NONE', #80, .T. ) ;
#138 = SECURITY_CLASSIFICATION ( '', '', #205 ) ;
#139 = CARTESIAN_POINT ( 'NONE',  ( 8.790286409911516780E-15, -3.069612456472674577E-16, 2.517638090205026824 ) ) ;
#140 = CARTESIAN_POINT ( 'NONE',  ( 1.316288464743861212E-13, -4.616918432785521081E-15, 37.69999999999999574 ) ) ;
#141 = DIRECTION ( 'NONE',  ( 3.491481338843133355E-15, -1.219242935835426903E-16, 1.000000000000000000 ) ) ;
#142 = PERSON_AND_ORGANIZATION ( #235, #231 ) ;
#143 = APPLICATION_CONTEXT ( 'configuration controlled 3d designs of mechanical parts and assemblies' ) ;
#144 = APPLICATION_PROTOCOL_DEFINITION ( 'international standard', 'config_control_design', 1994, #13 ) ;
#145 = MECHANICAL_CONTEXT ( 'NONE', #143, 'mechanical' ) ;
#146 = APPROVAL_PERSON_ORGANIZATION ( #186, #171, #12 ) ;
#147 = CLOSED_SHELL ( 'NONE', ( #106, #179, #213, #10, #34, #44 ) ) ;
#148 = EDGE_LOOP ( 'NONE', ( #40 ) ) ;
#149 = CALENDAR_DATE ( 2021, 1, 11 ) ;
#150 = ORIENTED_EDGE ( 'NONE', *, *, #233, .T. ) ;
#151 = CALENDAR_DATE ( 2021, 1, 11 ) ;
#152 = AXIS2_PLACEMENT_3D ( 'NONE', #102, #224, #63 ) ;
#153 = AXIS2_PLACEMENT_3D ( 'NONE', #199, #55, #8 ) ;
#154 = DIRECTION ( 'NONE',  ( 3.491481338843133355E-15, -1.224646799147353207E-16, 1.000000000000000000 ) ) ;
#155 = FACE_OUTER_BOUND ( 'NONE', #61, .T. ) ;
#156 = EDGE_CURVE ( 'NONE', #28, #28, #83, .T. ) ;
#157 = CARTESIAN_POINT ( 'NONE',  ( 3.428881829900217893E-14, -1.197382870820528168E-15, 9.820707880501926113 ) ) ;
#158 = DIRECTION ( 'NONE',  ( -3.491481338843133355E-15, 1.224646799147353207E-16, -1.000000000000000000 ) ) ;
#159 = APPROVAL ( #169, 'UNSPECIFIED' ) ;
#160 = PRODUCT_DEFINITION_FORMATION_WITH_SPECIFIED_SOURCE ( 'ANY', '', #206, .NOT_KNOWN. ) ;
#161 = CARTESIAN_POINT ( 'NONE',  ( 6.982962677686266711E-15, -0.4750000000000001443, 2.000000000000000000 ) ) ;
#162 = CARTESIAN_POINT ( 'NONE',  ( 1.316288464743861212E-13, 1.499999999999988232, 37.69999999999999574 ) ) ;
#163 =( NAMED_UNIT ( * ) PLANE_ANGLE_UNIT ( ) SI_UNIT ( $, .RADIAN. ) );
#164 = EDGE_CURVE ( 'NONE', #232, #232, #47, .T. ) ;
#165 = AXIS2_PLACEMENT_3D ( 'NONE', #157, #211, #48 ) ;
#166 = CARTESIAN_POINT ( 'NONE',  ( -4.894045131241709853E-30, -0.4749999999999997558, -1.401710235937649942E-15 ) ) ;
#167 = APPROVAL_DATE_TIME ( #17, #93 ) ;
#168 = ORIENTED_EDGE ( 'NONE', *, *, #164, .T. ) ;
#169 = APPROVAL_STATUS ( 'not_yet_approved' ) ;
#170 = FACE_BOUND ( 'NONE', #148, .T. ) ;
#171 = APPROVAL ( #219, 'UNSPECIFIED' ) ;
#172 = ORIENTED_EDGE ( 'NONE', *, *, #54, .F. ) ;
#173 = CONICAL_SURFACE ( 'NONE', #165, 2.499999999999992006, 0.2617993877991428575 ) ;
#174 = APPROVAL_PERSON_ORGANIZATION ( #239, #159, #37 ) ;
#175 = DIRECTION ( 'NONE',  ( 0.0000000000000000000, -1.000000000000000000, 0.0000000000000000000 ) ) ;
#176 = DIRECTION ( 'NONE',  ( -4.256963957985708889E-31, -1.000000000000000000, -1.219242935835427149E-16 ) ) ;
#177 = CARTESIAN_POINT ( 'NONE',  ( 1.326762908760390423E-13, 8.998558695971030697E-33, 38.00000000000000000 ) ) ;
#178 = DIRECTION ( 'NONE',  ( -3.491481338843133355E-15, 1.224646799147353207E-16, -1.000000000000000000 ) ) ;
#179 = ADVANCED_FACE ( 'NONE', ( #210, #64 ), #56, .T. ) ;
#180 = CARTESIAN_POINT ( 'NONE',  ( 0.0000000000000000000, 0.0000000000000000000, 0.0000000000000000000 ) ) ;
#181 = CALENDAR_DATE ( 2021, 1, 11 ) ;
#182 = CARTESIAN_POINT ( 'NONE',  ( -4.691839343237388577E-30, 1.638414019767421129E-31, -1.343796196485467051E-15 ) ) ;
#183 = CC_DESIGN_PERSON_AND_ORGANIZATION_ASSIGNMENT ( #142, #217, ( #71 ) ) ;
#184 = VERTEX_POINT ( 'NONE', #161 ) ;
#185 = AXIS2_PLACEMENT_3D ( 'NONE', #139, #197, #195 ) ;
#186 = PERSON_AND_ORGANIZATION ( #235, #231 ) ;
#187 = EDGE_CURVE ( 'NONE', #51, #51, #220, .T. ) ;
#188 = COORDINATED_UNIVERSAL_TIME_OFFSET ( 1, 0, .AHEAD. ) ;
#189 = AXIS2_PLACEMENT_3D ( 'NONE', #140, #158, #24 ) ;
#190 = ADVANCED_FACE ( 'NONE', ( #196, #116 ), #22, .T. ) ;
#191 = EDGE_LOOP ( 'NONE', ( #77 ) ) ;
#192 = FACE_OUTER_BOUND ( 'NONE', #191, .T. ) ;
#193 = AXIS2_PLACEMENT_3D ( 'NONE', #223, #84, #25 ) ;
#194 = LOCAL_TIME ( 10, 16, 20.00000000000000000, #35 ) ;
#195 = DIRECTION ( 'NONE',  ( 0.0000000000000000000, -1.000000000000000000, 0.0000000000000000000 ) ) ;
#196 = FACE_OUTER_BOUND ( 'NONE', #98, .T. ) ;
#197 = DIRECTION ( 'NONE',  ( 3.491481338843133355E-15, -1.219242935835426903E-16, 1.000000000000000000 ) ) ;
#198 = AXIS2_PLACEMENT_3D ( 'NONE', #180, #178, #6 ) ;
#199 = CARTESIAN_POINT ( 'NONE',  ( 0.0000000000000000000, 0.0000000000000000000, 0.0000000000000000000 ) ) ;
#200 = VERTEX_POINT ( 'NONE', #162 ) ;
#201 =( NAMED_UNIT ( * ) SI_UNIT ( $, .STERADIAN. ) SOLID_ANGLE_UNIT ( ) );
#202 = DIRECTION ( 'NONE',  ( 3.491481338843133355E-15, -1.224646799147353207E-16, 1.000000000000000000 ) ) ;
#203 = CC_DESIGN_PERSON_AND_ORGANIZATION_ASSIGNMENT ( #95, #76, ( #138 ) ) ;
#204 = EDGE_LOOP ( 'NONE', ( #172 ) ) ;
#205 = SECURITY_CLASSIFICATION_LEVEL ( 'unclassified' ) ;
#206 = PRODUCT ( '42846', '42846', '', ( #145 ) ) ;
#207 = DATE_AND_TIME ( #151, #50 ) ;
#208 = EDGE_LOOP ( 'NONE', ( #125 ) ) ;
#209 = CARTESIAN_POINT ( 'NONE',  ( 6.982962677686266711E-15, 1.124819836996384311E-32, 2.000000000000000000 ) ) ;
#210 = FACE_OUTER_BOUND ( 'NONE', #204, .T. ) ;
#211 = DIRECTION ( 'NONE',  ( 3.491481338843133355E-15, -1.219242935835426903E-16, 1.000000000000000000 ) ) ;
#212 = CYLINDRICAL_SURFACE ( 'NONE', #198, 1.499999999999990674 ) ;
#213 = ADVANCED_FACE ( 'NONE', ( #155 ), #100, .F. ) ;
#214 = DIRECTION ( 'NONE',  ( -4.316305397992992729E-31, -1.000000000000000000, -1.219242935835426903E-16 ) ) ;
#215 = ADVANCED_BREP_SHAPE_REPRESENTATION ( '42846', ( #133, #218, #153 ), #107 ) ;
#216 = AXIS2_PLACEMENT_3D ( 'NONE', #182, #69, #30 ) ;
#217 = PERSON_AND_ORGANIZATION_ROLE ( 'creator' ) ;
#218 = MANIFOLD_SOLID_BREP ( 'Corps-Déplacer/Copier1[2]', #96 ) ;
#219 = APPROVAL_STATUS ( 'not_yet_approved' ) ;
#220 = CIRCLE ( 'NONE', #185, 0.5431483474218600227 ) ;
#221 = UNCERTAINTY_MEASURE_WITH_UNIT (LENGTH_MEASURE( 1.000000000000000082E-05 ), #238, 'distance_accuracy_value', 'NONE');
#222 = ORIENTED_EDGE ( 'NONE', *, *, #156, .F. ) ;
#223 = CARTESIAN_POINT ( 'NONE',  ( 6.982962677686266711E-15, -2.438485871670853805E-16, 2.000000000000000000 ) ) ;
#224 = DIRECTION ( 'NONE',  ( 3.491481338843133355E-15, -1.224646799147353207E-16, 1.000000000000000000 ) ) ;
#225 = TOROIDAL_SURFACE ( 'NONE', #130, 2.475000000000000533, 2.000000000000000000 ) ;
#226 = AXIS2_PLACEMENT_3D ( 'NONE', #85, #99, #176 ) ;
#227 = FACE_OUTER_BOUND ( 'NONE', #109, .T. ) ;
#228 = ADVANCED_FACE ( 'NONE', ( #29 ), #91, .T. ) ;
#229 = CARTESIAN_POINT ( 'NONE',  ( 2.125843254876063851E-14, -7.423552124897903367E-16, 6.088657072932947223 ) ) ;
#230 = PERSON_AND_ORGANIZATION ( #235, #231 ) ;
#231 = ORGANIZATION ( 'UNSPECIFIED', 'UNSPECIFIED', '' ) ;
#232 = VERTEX_POINT ( 'NONE', #52 ) ;
#233 = EDGE_CURVE ( 'NONE', #121, #121, #11, .T. ) ;
#234 = CARTESIAN_POINT ( 'NONE',  ( 1.326762908760390423E-13, 1.199999999999989297, 38.00000000000000000 ) ) ;
#235 = PERSON ( 'UNSPECIFIED', 'UNSPECIFIED', 'UNSPECIFIED', ('UNSPECIFIED'), ('UNSPECIFIED'), ('UNSPECIFIED') ) ;
#236 = CIRCLE ( 'NONE', #189, 1.499999999999992895 ) ;
#237 = CC_DESIGN_SECURITY_CLASSIFICATION ( #138, ( #160 ) ) ;
#238 =( LENGTH_UNIT ( ) NAMED_UNIT ( * ) SI_UNIT ( .MILLI., .METRE. ) );
#239 = PERSON_AND_ORGANIZATION ( #235, #231 ) ;
#240 = ORIENTED_EDGE ( 'NONE', *, *, #126, .F. ) ;
#241 = EDGE_LOOP ( 'NONE', ( #111 ) ) ;
#242 = CC_DESIGN_PERSON_AND_ORGANIZATION_ASSIGNMENT ( #122, #97, ( #160 ) ) ;
#243 = EDGE_LOOP ( 'NONE', ( #59 ) ) ;
ENDSEC;
END-ISO-10303-21;
