ISO-10303-21;
HEADER;
FILE_DESCRIPTION (( 'STEP AP203' ),
    '1' );
FILE_NAME ('42821.step',
    '2021-09-03T07:22:28',
    ( '' ),
    ( '' ),
    'SwSTEP 2.0',
    'SolidWorks 2019',
    '' );
FILE_SCHEMA (( 'CONFIG_CONTROL_DESIGN' ));
ENDSEC;

DATA;
#1 = DIRECTION ( 'NONE',  ( 3.851859888774480902E-31, 1.000000000000000000, 1.084202172485507022E-16 ) ) ;
#2 = DIRECTION ( 'NONE',  ( -2.468850131082257455E-15, 0.7071067811865497932, -0.7071067811865453523 ) ) ;
#3 = ORIENTED_EDGE ( 'NONE', *, *, #213, .F. ) ;
#4 = DIRECTION ( 'NONE',  ( -3.491481338843133355E-15, 1.224646799147353207E-16, -1.000000000000000000 ) ) ;
#5 = ADVANCED_FACE ( 'NONE', ( #263 ), #115, .T. ) ;
#6 = DIRECTION ( 'NONE',  ( 3.491481338843133355E-15, -1.224646799147353207E-16, 1.000000000000000000 ) ) ;
#7 = VECTOR ( 'NONE', #175, 1000.000000000000000 ) ;
#8 = FACE_OUTER_BOUND ( 'NONE', #119, .T. ) ;
#9 = CARTESIAN_POINT ( 'NONE',  ( 8.391574554321913279E-15, -2.943368135303221055E-16, 2.403442476110261961 ) ) ;
#10 = ADVANCED_FACE ( 'NONE', ( #205 ), #298, .T. ) ;
#11 = AXIS2_PLACEMENT_3D ( 'NONE', #70, #259, #51 ) ;
#12 = APPROVAL_ROLE ( '' ) ;
#13 = COORDINATED_UNIVERSAL_TIME_OFFSET ( 1, 0, .AHEAD. ) ;
#14 = CARTESIAN_POINT ( 'NONE',  ( 2.730338406975330915E-13, -9.576737969332302470E-15, 78.20000000000000284 ) ) ;
#15 = DATE_TIME_ROLE ( 'classification_date' ) ;
#16 = ORIENTED_EDGE ( 'NONE', *, *, #252, .T. ) ;
#17 = CIRCLE ( 'NONE', #268, 3.999999999999994227 ) ;
#18 = APPROVAL_DATE_TIME ( #39, #237 ) ;
#19 = APPROVAL_PERSON_ORGANIZATION ( #202, #262, #248 ) ;
#20 = EDGE_LOOP ( 'NONE', ( #98, #336, #221 ) ) ;
#21 = EDGE_LOOP ( 'NONE', ( #48, #16, #283, #57 ) ) ;
#22 =( LENGTH_UNIT ( ) NAMED_UNIT ( * ) SI_UNIT ( .MILLI., .METRE. ) );
#23 = AXIS2_PLACEMENT_3D ( 'NONE', #107, #78, #137 ) ;
#24 = ORIENTED_EDGE ( 'NONE', *, *, #28, .T. ) ;
#25 = DATE_AND_TIME ( #104, #110 ) ;
#26 = CYLINDRICAL_SURFACE ( 'NONE', #157, 3.999999999999992450 ) ;
#27 = PERSON ( 'UNSPECIFIED', 'UNSPECIFIED', 'UNSPECIFIED', ('UNSPECIFIED'), ('UNSPECIFIED'), ('UNSPECIFIED') ) ;
#28 = EDGE_CURVE ( 'NONE', #211, #59, #184, .T. ) ;
#29 = DIRECTION ( 'NONE',  ( -3.851859888774480902E-31, -1.000000000000000000, -1.084202172485507022E-16 ) ) ;
#30 = CARTESIAN_POINT ( 'NONE',  ( 9.426999614876460059E-14, -3.306546357697853733E-15, 27.00000000000000000 ) ) ;
#31 = VECTOR ( 'NONE', #315, 1000.000000000000114 ) ;
#32 = ADVANCED_BREP_SHAPE_REPRESENTATION ( '42821', ( #168, #53, #269 ), #73 ) ;
#33 = LOCAL_TIME ( 9, 22, 28.00000000000000000, #118 ) ;
#34 = EDGE_CURVE ( 'NONE', #211, #109, #36, .T. ) ;
#35 = DIRECTION ( 'NONE',  ( 0.0000000000000000000, 0.0000000000000000000, 1.000000000000000000 ) ) ;
#36 = LINE ( 'NONE', #292, #31 ) ;
#37 = APPROVAL_DATE_TIME ( #42, #262 ) ;
#38 = DIRECTION ( 'NONE',  ( -3.491481338843133355E-15, 1.224646799147353207E-16, -1.000000000000000000 ) ) ;
#39 = DATE_AND_TIME ( #89, #33 ) ;
#40 = FACE_OUTER_BOUND ( 'NONE', #224, .T. ) ;
#41 = PRODUCT ( '42821', '42821', '', ( #249 ) ) ;
#42 = DATE_AND_TIME ( #120, #122 ) ;
#43 = EDGE_CURVE ( 'NONE', #293, #179, #169, .T. ) ;
#44 = CONICAL_SURFACE ( 'NONE', #216, 3.999999999999990674, 1.029744258676649649 ) ;
#45 = CARTESIAN_POINT ( 'NONE',  ( 1.841417771428076162E-13, -4.000000000000009770, 78.20000000000000284 ) ) ;
#46 = DIRECTION ( 'NONE',  ( 1.903218546456022717E-15, 0.8571673007021097801, 0.5150380749100585964 ) ) ;
#47 = ORIENTED_EDGE ( 'NONE', *, *, #66, .F. ) ;
#48 = ORIENTED_EDGE ( 'NONE', *, *, #288, .F. ) ;
#49 = CONICAL_SURFACE ( 'NONE', #245, 3.200000000000000178, 0.7853981633974512766 ) ;
#50 = CC_DESIGN_APPROVAL ( #138, ( #174 ) ) ;
#51 = DIRECTION ( 'NONE',  ( 4.275831445896957731E-31, 1.000000000000000000, 1.224646799147353207E-16 ) ) ;
#52 = FACE_OUTER_BOUND ( 'NONE', #84, .T. ) ;
#53 = MANIFOLD_SOLID_BREP ( 'Corps-Déplacer/Copier1[2]', #145 ) ;
#54 = CALENDAR_DATE ( 2021, 3, 9 ) ;
#55 = AXIS2_PLACEMENT_3D ( 'NONE', #218, #113, #141 ) ;
#56 = ADVANCED_FACE ( 'NONE', ( #270 ), #86, .F. ) ;
#57 = ORIENTED_EDGE ( 'NONE', *, *, #242, .F. ) ;
#58 = FACE_OUTER_BOUND ( 'NONE', #183, .T. ) ;
#59 = VERTEX_POINT ( 'NONE', #162 ) ;
#60 = ORGANIZATION ( 'UNSPECIFIED', 'UNSPECIFIED', '' ) ;
#61 = PERSON_AND_ORGANIZATION_ROLE ( 'creator' ) ;
#62 = VECTOR ( 'NONE', #335, 1000.000000000000000 ) ;
#63 = LINE ( 'NONE', #296, #7 ) ;
#64 = EDGE_LOOP ( 'NONE', ( #325, #143, #186, #279 ) ) ;
#65 = CARTESIAN_POINT ( 'NONE',  ( 2.758270257686075477E-13, -9.674709713264090904E-15, 79.00000000000000000 ) ) ;
#66 = EDGE_CURVE ( 'NONE', #219, #322, #275, .T. ) ;
#67 = VERTEX_POINT ( 'NONE', #332 ) ;
#68 = CARTESIAN_POINT ( 'NONE',  ( 4.898587196589392121E-16, -3.999999999999996447, -4.898587196589424662E-16 ) ) ;
#69 = CC_DESIGN_APPROVAL ( #262, ( #165 ) ) ;
#70 = CARTESIAN_POINT ( 'NONE',  ( 0.0000000000000000000, 0.0000000000000000000, 0.0000000000000000000 ) ) ;
#71 = DIRECTION ( 'NONE',  ( -3.491481338843133355E-15, 1.224646799147353207E-16, -1.000000000000000000 ) ) ;
#72 = DIRECTION ( 'NONE',  ( 0.0000000000000000000, 1.000000000000000000, 0.0000000000000000000 ) ) ;
#73 =( GEOMETRIC_REPRESENTATION_CONTEXT ( 3 ) GLOBAL_UNCERTAINTY_ASSIGNED_CONTEXT ( ( #329 ) ) GLOBAL_UNIT_ASSIGNED_CONTEXT ( ( #22, #180, #189 ) ) REPRESENTATION_CONTEXT ( 'NONE', 'WORKASPACE' ) );
#74 = CARTESIAN_POINT ( 'NONE',  ( 2.730338406975330915E-13, -9.576737969332302470E-15, 78.20000000000000284 ) ) ;
#75 = APPROVAL_ROLE ( '' ) ;
#76 = CARTESIAN_POINT ( 'NONE',  ( 8.391574554321911702E-15, -3.999999999999990674, 2.403442476110261516 ) ) ;
#77 = ORIENTED_EDGE ( 'NONE', *, *, #314, .F. ) ;
#78 = DIRECTION ( 'NONE',  ( -3.491481338843133355E-15, 1.224646799147353207E-16, -1.000000000000000000 ) ) ;
#79 = CARTESIAN_POINT ( 'NONE',  ( 9.426999614876460059E-14, 2.999519565323705910E-32, 27.00000000000000000 ) ) ;
#80 = PLANE ( 'NONE',  #311 ) ;
#81 = DIRECTION ( 'NONE',  ( -3.491481338843133355E-15, 1.224646799147353207E-16, -1.000000000000000000 ) ) ;
#82 = DIRECTION ( 'NONE',  ( -3.491481338843133355E-15, 1.224646799147353207E-16, -1.000000000000000000 ) ) ;
#83 = DIRECTION ( 'NONE',  ( 0.0000000000000000000, 1.000000000000000000, 0.0000000000000000000 ) ) ;
#84 = EDGE_LOOP ( 'NONE', ( #116, #176 ) ) ;
#85 = ORIENTED_EDGE ( 'NONE', *, *, #252, .F. ) ;
#86 = PLANE ( 'NONE',  #294 ) ;
#87 = VECTOR ( 'NONE', #71, 1000.000000000000000 ) ;
#88 = CYLINDRICAL_SURFACE ( 'NONE', #93, 3.999999999999992450 ) ;
#89 = CALENDAR_DATE ( 2021, 3, 9 ) ;
#90 = EDGE_CURVE ( 'NONE', #121, #67, #17, .T. ) ;
#91 = APPLICATION_CONTEXT ( 'configuration controlled 3d designs of mechanical parts and assemblies' ) ;
#92 = AXIS2_PLACEMENT_3D ( 'NONE', #153, #258, #281 ) ;
#93 = AXIS2_PLACEMENT_3D ( 'NONE', #135, #82, #108 ) ;
#94 = DIRECTION ( 'NONE',  ( 0.0000000000000000000, 1.000000000000000000, 0.0000000000000000000 ) ) ;
#95 = EDGE_CURVE ( 'NONE', #59, #211, #273, .T. ) ;
#96 = CARTESIAN_POINT ( 'NONE',  ( 4.898587196589386205E-16, -3.999999999999992450, -4.898587196589420717E-16 ) ) ;
#97 = DIRECTION ( 'NONE',  ( 0.0000000000000000000, 1.000000000000000000, 0.0000000000000000000 ) ) ;
#98 = ORIENTED_EDGE ( 'NONE', *, *, #161, .F. ) ;
#99 = CARTESIAN_POINT ( 'NONE',  ( 9.426999614876460059E-14, 3.999999999999990674, 27.00000000000000000 ) ) ;
#100 = ORIENTED_EDGE ( 'NONE', *, *, #333, .T. ) ;
#101 = ORIENTED_EDGE ( 'NONE', *, *, #304, .F. ) ;
#102 = LINE ( 'NONE', #68, #147 ) ;
#103 = ADVANCED_FACE ( 'NONE', ( #40 ), #49, .T. ) ;
#104 = CALENDAR_DATE ( 2021, 3, 9 ) ;
#105 = SECURITY_CLASSIFICATION ( '', '', #320 ) ;
#106 = CC_DESIGN_PERSON_AND_ORGANIZATION_ASSIGNMENT ( #192, #207, ( #174 ) ) ;
#107 = CARTESIAN_POINT ( 'NONE',  ( 8.391574554321913279E-15, -2.943368135303221055E-16, 2.403442476110261961 ) ) ;
#108 = DIRECTION ( 'NONE',  ( 4.275831445896958607E-31, 1.000000000000000000, 1.224646799147352961E-16 ) ) ;
#109 = VERTEX_POINT ( 'NONE', #45 ) ;
#110 = LOCAL_TIME ( 9, 22, 28.00000000000000000, #167 ) ;
#111 = APPLICATION_PROTOCOL_DEFINITION ( 'international standard', 'config_control_design', 1994, #91 ) ;
#112 = ORIENTED_EDGE ( 'NONE', *, *, #90, .T. ) ;
#113 = DIRECTION ( 'NONE',  ( -3.491481338843133355E-15, 1.224646799147353207E-16, -1.000000000000000000 ) ) ;
#114 = DIRECTION ( 'NONE',  ( 4.275831445896958607E-31, 1.000000000000000000, 1.224646799147353207E-16 ) ) ;
#115 = CONICAL_SURFACE ( 'NONE', #297, 3.200000000000000178, 0.7853981633974512766 ) ;
#116 = ORIENTED_EDGE ( 'NONE', *, *, #43, .F. ) ;
#117 = EDGE_CURVE ( 'NONE', #179, #293, #196, .T. ) ;
#118 = COORDINATED_UNIVERSAL_TIME_OFFSET ( 1, 0, .AHEAD. ) ;
#119 = EDGE_LOOP ( 'NONE', ( #146, #173, #101, #260 ) ) ;
#120 = CALENDAR_DATE ( 2021, 3, 9 ) ;
#121 = VERTEX_POINT ( 'NONE', #99 ) ;
#122 = LOCAL_TIME ( 9, 22, 28.00000000000000000, #150 ) ;
#123 = DIRECTION ( 'NONE',  ( 3.491481338843133355E-15, -1.224646799147353207E-16, 1.000000000000000000 ) ) ;
#124 = CARTESIAN_POINT ( 'NONE',  ( 2.748713060807633257E-13, -3.200000000000009504, 79.00000000000000000 ) ) ;
#125 = ORIENTED_EDGE ( 'NONE', *, *, #161, .T. ) ;
#126 = DIRECTION ( 'NONE',  ( 3.491481338843133355E-15, -1.224646799147353207E-16, 1.000000000000000000 ) ) ;
#127 = CC_DESIGN_PERSON_AND_ORGANIZATION_ASSIGNMENT ( #215, #139, ( #41 ) ) ;
#128 = LOCAL_TIME ( 9, 22, 28.00000000000000000, #13 ) ;
#129 = LINE ( 'NONE', #236, #62 ) ;
#130 = ORIENTED_EDGE ( 'NONE', *, *, #117, .T. ) ;
#131 = ADVANCED_FACE ( 'NONE', ( #52 ), #267, .T. ) ;
#132 = CARTESIAN_POINT ( 'NONE',  ( 0.0000000000000000000, 0.0000000000000000000, 0.0000000000000000000 ) ) ;
#133 = DIRECTION ( 'NONE',  ( -3.491481338843133355E-15, 1.224646799147353207E-16, -1.000000000000000000 ) ) ;
#134 = AXIS2_PLACEMENT_3D ( 'NONE', #30, #195, #306 ) ;
#135 = CARTESIAN_POINT ( 'NONE',  ( 0.0000000000000000000, 0.0000000000000000000, 0.0000000000000000000 ) ) ;
#136 = CARTESIAN_POINT ( 'NONE',  ( 9.426999614876460059E-14, 2.999519565323705910E-32, 27.00000000000000000 ) ) ;
#137 = DIRECTION ( 'NONE',  ( 3.851859888774480902E-31, 1.000000000000000000, 1.084202172485507022E-16 ) ) ;
#138 = APPROVAL ( #209, 'UNSPECIFIED' ) ;
#139 = PERSON_AND_ORGANIZATION_ROLE ( 'design_owner' ) ;
#140 = CIRCLE ( 'NONE', #23, 3.999999999999990674 ) ;
#141 = DIRECTION ( 'NONE',  ( 0.0000000000000000000, 1.000000000000000000, 0.0000000000000000000 ) ) ;
#142 = CARTESIAN_POINT ( 'NONE',  ( 9.426999614876460059E-14, 3.999999999999990674, 27.00000000000000000 ) ) ;
#143 = ORIENTED_EDGE ( 'NONE', *, *, #288, .T. ) ;
#144 = APPLICATION_PROTOCOL_DEFINITION ( 'international standard', 'config_control_design', 1994, #316 ) ;
#145 = CLOSED_SHELL ( 'NONE', ( #166, #290, #178, #155, #131 ) ) ;
#146 = ORIENTED_EDGE ( 'NONE', *, *, #43, .T. ) ;
#147 = VECTOR ( 'NONE', #133, 1000.000000000000000 ) ;
#148 = DIRECTION ( 'NONE',  ( 0.0000000000000000000, 1.000000000000000000, 0.0000000000000000000 ) ) ;
#149 = DIRECTION ( 'NONE',  ( -3.851859888774480902E-31, -1.000000000000000000, -1.084202172485507022E-16 ) ) ;
#150 = COORDINATED_UNIVERSAL_TIME_OFFSET ( 1, 0, .AHEAD. ) ;
#151 = PERSON_AND_ORGANIZATION ( #27, #60 ) ;
#152 = APPROVAL_PERSON_ORGANIZATION ( #239, #138, #75 ) ;
#153 = CARTESIAN_POINT ( 'NONE',  ( 9.426999614876460059E-14, -3.306546357697853733E-15, 27.00000000000000000 ) ) ;
#154 = ORIENTED_EDGE ( 'NONE', *, *, #185, .F. ) ;
#155 = ADVANCED_FACE ( 'NONE', ( #264 ), #26, .T. ) ;
#156 = AXIS2_PLACEMENT_3D ( 'NONE', #330, #204, #278 ) ;
#157 = AXIS2_PLACEMENT_3D ( 'NONE', #132, #240, #210 ) ;
#158 = PRODUCT_RELATED_PRODUCT_CATEGORY ( 'detail', '', ( #41 ) ) ;
#159 = DIRECTION ( 'NONE',  ( -4.275831445896958607E-31, -1.000000000000000000, -1.224646799147353207E-16 ) ) ;
#160 = ORIENTED_EDGE ( 'NONE', *, *, #299, .T. ) ;
#161 = EDGE_CURVE ( 'NONE', #219, #182, #307, .T. ) ;
#162 = CARTESIAN_POINT ( 'NONE',  ( 2.758270257686075477E-13, 3.199999999999990408, 79.00000000000000000 ) ) ;
#163 = CARTESIAN_POINT ( 'NONE',  ( 2.730338406975330915E-13, 3.999999999999990674, 78.20000000000000284 ) ) ;
#164 = FACE_OUTER_BOUND ( 'NONE', #326, .T. ) ;
#165 = PRODUCT_DEFINITION_FORMATION_WITH_SPECIFIED_SOURCE ( 'ANY', '', #41, .NOT_KNOWN. ) ;
#166 = ADVANCED_FACE ( 'NONE', ( #8 ), #88, .T. ) ;
#167 = COORDINATED_UNIVERSAL_TIME_OFFSET ( 1, 0, .AHEAD. ) ;
#168 = MANIFOLD_SOLID_BREP ( 'Corps-Déplacer/Copier1[1]', #334 ) ;
#169 = CIRCLE ( 'NONE', #232, 3.999999999999994227 ) ;
#170 = CARTESIAN_POINT ( 'NONE',  ( 5.182064407120215414E-14, -3.999999999999997335, 27.00000000000000000 ) ) ;
#171 = CIRCLE ( 'NONE', #134, 3.999999999999994227 ) ;
#172 = CIRCLE ( 'NONE', #286, 4.000000000000000000 ) ;
#173 = ORIENTED_EDGE ( 'NONE', *, *, #314, .T. ) ;
#174 = PRODUCT_DEFINITION ( 'UNKNOWN', '', #165, #227 ) ;
#175 = DIRECTION ( 'NONE',  ( -3.491481338843133355E-15, 1.224646799147353207E-16, -1.000000000000000000 ) ) ;
#176 = ORIENTED_EDGE ( 'NONE', *, *, #117, .F. ) ;
#177 = CARTESIAN_POINT ( 'NONE',  ( 0.0000000000000000000, 0.0000000000000000000, 0.0000000000000000000 ) ) ;
#178 = ADVANCED_FACE ( 'NONE', ( #164 ), #44, .T. ) ;
#179 = VERTEX_POINT ( 'NONE', #170 ) ;
#180 =( NAMED_UNIT ( * ) PLANE_ANGLE_UNIT ( ) SI_UNIT ( $, .RADIAN. ) );
#181 = DIRECTION ( 'NONE',  ( -3.491481338843133355E-15, 1.224646799147353207E-16, -1.000000000000000000 ) ) ;
#182 = VERTEX_POINT ( 'NONE', #197 ) ;
#183 = EDGE_LOOP ( 'NONE', ( #112, #319 ) ) ;
#184 = CIRCLE ( 'NONE', #55, 3.200000000000000178 ) ;
#185 = EDGE_CURVE ( 'NONE', #238, #109, #172, .T. ) ;
#186 = ORIENTED_EDGE ( 'NONE', *, *, #90, .F. ) ;
#187 = PERSON_AND_ORGANIZATION ( #27, #60 ) ;
#188 = CARTESIAN_POINT ( 'NONE',  ( 2.758270257686075477E-13, 3.199999999999990408, 79.00000000000000000 ) ) ;
#189 =( NAMED_UNIT ( * ) SI_UNIT ( $, .STERADIAN. ) SOLID_ANGLE_UNIT ( ) );
#190 = EDGE_LOOP ( 'NONE', ( #318, #203 ) ) ;
#191 = EDGE_CURVE ( 'NONE', #238, #121, #63, .T. ) ;
#192 = PERSON_AND_ORGANIZATION ( #27, #60 ) ;
#193 = APPROVAL_PERSON_ORGANIZATION ( #194, #237, #12 ) ;
#194 = PERSON_AND_ORGANIZATION ( #27, #60 ) ;
#195 = DIRECTION ( 'NONE',  ( -3.491481338843133355E-15, 1.224646799147353207E-16, -1.000000000000000000 ) ) ;
#196 = CIRCLE ( 'NONE', #92, 3.999999999999994227 ) ;
#197 = CARTESIAN_POINT ( 'NONE',  ( 8.391574554321911702E-15, -3.999999999999990674, 2.403442476110261516 ) ) ;
#198 = CC_DESIGN_PERSON_AND_ORGANIZATION_ASSIGNMENT ( #151, #277, ( #165 ) ) ;
#199 = DIRECTION ( 'NONE',  ( -3.491481338843133355E-15, 1.224646799147353207E-16, -1.000000000000000000 ) ) ;
#200 = PERSON_AND_ORGANIZATION ( #27, #60 ) ;
#201 = CARTESIAN_POINT ( 'NONE',  ( 8.881433273980853872E-15, 3.999999999999990674, 2.403442476110262405 ) ) ;
#202 = PERSON_AND_ORGANIZATION ( #27, #60 ) ;
#203 = ORIENTED_EDGE ( 'NONE', *, *, #28, .F. ) ;
#204 = DIRECTION ( 'NONE',  ( -3.491481338843133355E-15, 1.224646799147353207E-16, -1.000000000000000000 ) ) ;
#205 = FACE_OUTER_BOUND ( 'NONE', #64, .T. ) ;
#206 = ORIENTED_EDGE ( 'NONE', *, *, #34, .T. ) ;
#207 = PERSON_AND_ORGANIZATION_ROLE ( 'creator' ) ;
#208 = CIRCLE ( 'NONE', #337, 4.000000000000000000 ) ;
#209 = APPROVAL_STATUS ( 'not_yet_approved' ) ;
#210 = DIRECTION ( 'NONE',  ( 4.275831445896958607E-31, 1.000000000000000000, 1.224646799147352961E-16 ) ) ;
#211 = VERTEX_POINT ( 'NONE', #124 ) ;
#212 = LINE ( 'NONE', #96, #87 ) ;
#213 = EDGE_CURVE ( 'NONE', #59, #238, #254, .T. ) ;
#214 = CARTESIAN_POINT ( 'NONE',  ( 0.0000000000000000000, 0.0000000000000000000, 0.0000000000000000000 ) ) ;
#215 = PERSON_AND_ORGANIZATION ( #27, #60 ) ;
#216 = AXIS2_PLACEMENT_3D ( 'NONE', #256, #123, #149 ) ;
#217 = CARTESIAN_POINT ( 'NONE',  ( 0.0000000000000000000, 0.0000000000000000000, 0.0000000000000000000 ) ) ;
#218 = CARTESIAN_POINT ( 'NONE',  ( 2.758270257686075477E-13, -9.674709713264090904E-15, 79.00000000000000000 ) ) ;
#219 = VERTEX_POINT ( 'NONE', #214 ) ;
#220 = CARTESIAN_POINT ( 'NONE',  ( 9.426999614876460059E-14, -3.306546357697853733E-15, 27.00000000000000000 ) ) ;
#221 = ORIENTED_EDGE ( 'NONE', *, *, #304, .T. ) ;
#222 = CALENDAR_DATE ( 2021, 3, 9 ) ;
#223 = DIRECTION ( 'NONE',  ( -3.491481338843133355E-15, 1.224646799147353207E-16, -1.000000000000000000 ) ) ;
#224 = EDGE_LOOP ( 'NONE', ( #291, #24, #233, #85 ) ) ;
#225 = CC_DESIGN_DATE_AND_TIME_ASSIGNMENT ( #25, #303, ( #174 ) ) ;
#226 = APPROVAL_STATUS ( 'not_yet_approved' ) ;
#227 = DESIGN_CONTEXT ( 'detailed design', #91, 'design' ) ;
#228 = DIRECTION ( 'NONE',  ( -3.491481338843133355E-15, 1.224646799147353207E-16, -1.000000000000000000 ) ) ;
#229 = VECTOR ( 'NONE', #285, 1000.000000000000000 ) ;
#230 = CARTESIAN_POINT ( 'NONE',  ( 9.426999614876460059E-14, -3.306546357697853733E-15, 27.00000000000000000 ) ) ;
#231 = ADVANCED_FACE ( 'NONE', ( #58 ), #80, .F. ) ;
#232 = AXIS2_PLACEMENT_3D ( 'NONE', #220, #289, #83 ) ;
#233 = ORIENTED_EDGE ( 'NONE', *, *, #213, .T. ) ;
#234 = LOCAL_TIME ( 9, 22, 28.00000000000000000, #265 ) ;
#235 = CYLINDRICAL_SURFACE ( 'NONE', #261, 3.999999999999996447 ) ;
#236 = CARTESIAN_POINT ( 'NONE',  ( 1.710332578358780290E-30, 3.999999999999992450, 4.898587196589402968E-16 ) ) ;
#237 = APPROVAL ( #247, 'UNSPECIFIED' ) ;
#238 = VERTEX_POINT ( 'NONE', #163 ) ;
#239 = PERSON_AND_ORGANIZATION ( #27, #60 ) ;
#240 = DIRECTION ( 'NONE',  ( -3.491481338843133355E-15, 1.224646799147353207E-16, -1.000000000000000000 ) ) ;
#241 = CC_DESIGN_APPROVAL ( #237, ( #105 ) ) ;
#242 = EDGE_CURVE ( 'NONE', #67, #121, #171, .T. ) ;
#243 = FACE_OUTER_BOUND ( 'NONE', #20, .T. ) ;
#244 = CARTESIAN_POINT ( 'NONE',  ( 8.391574554321913279E-15, -2.943368135303221055E-16, 2.403442476110261961 ) ) ;
#245 = AXIS2_PLACEMENT_3D ( 'NONE', #65, #228, #94 ) ;
#246 = CARTESIAN_POINT ( 'NONE',  ( 2.758270257686075477E-13, -9.674709713264090904E-15, 79.00000000000000000 ) ) ;
#247 = APPROVAL_STATUS ( 'not_yet_approved' ) ;
#248 = APPROVAL_ROLE ( '' ) ;
#249 = MECHANICAL_CONTEXT ( 'NONE', #316, 'mechanical' ) ;
#250 = AXIS2_PLACEMENT_3D ( 'NONE', #244, #308, #29 ) ;
#251 = DIRECTION ( 'NONE',  ( 0.0000000000000000000, 1.000000000000000000, 0.0000000000000000000 ) ) ;
#252 = EDGE_CURVE ( 'NONE', #109, #238, #208, .T. ) ;
#253 = DATE_AND_TIME ( #54, #234 ) ;
#254 = LINE ( 'NONE', #188, #305 ) ;
#255 = CC_DESIGN_DATE_AND_TIME_ASSIGNMENT ( #253, #15, ( #105 ) ) ;
#256 = CARTESIAN_POINT ( 'NONE',  ( 8.391574554321913279E-15, -2.943368135303221055E-16, 2.403442476110261961 ) ) ;
#257 = DIRECTION ( 'NONE',  ( -3.491481338843133355E-15, 1.224646799147353207E-16, -1.000000000000000000 ) ) ;
#258 = DIRECTION ( 'NONE',  ( -3.491481338843133355E-15, 1.224646799147353207E-16, -1.000000000000000000 ) ) ;
#259 = DIRECTION ( 'NONE',  ( -3.491481338843133355E-15, 1.224646799147353207E-16, -1.000000000000000000 ) ) ;
#260 = ORIENTED_EDGE ( 'NONE', *, *, #333, .F. ) ;
#261 = AXIS2_PLACEMENT_3D ( 'NONE', #177, #257, #331 ) ;
#262 = APPROVAL ( #226, 'UNSPECIFIED' ) ;
#263 = FACE_OUTER_BOUND ( 'NONE', #301, .T. ) ;
#264 = FACE_OUTER_BOUND ( 'NONE', #271, .T. ) ;
#265 = COORDINATED_UNIVERSAL_TIME_OFFSET ( 1, 0, .AHEAD. ) ;
#266 = CC_DESIGN_PERSON_AND_ORGANIZATION_ASSIGNMENT ( #200, #61, ( #165 ) ) ;
#267 = PLANE ( 'NONE',  #302 ) ;
#268 = AXIS2_PLACEMENT_3D ( 'NONE', #230, #199, #251 ) ;
#269 = AXIS2_PLACEMENT_3D ( 'NONE', #217, #35, #323 ) ;
#270 = FACE_OUTER_BOUND ( 'NONE', #190, .T. ) ;
#271 = EDGE_LOOP ( 'NONE', ( #77, #130, #100, #310 ) ) ;
#272 = CARTESIAN_POINT ( 'NONE',  ( 2.758270257686075477E-13, 2.399615652258957941E-32, 79.00000000000000000 ) ) ;
#273 = CIRCLE ( 'NONE', #156, 3.200000000000000178 ) ;
#274 = CONICAL_SURFACE ( 'NONE', #250, 3.999999999999990674, 1.029744258676649649 ) ;
#275 = LINE ( 'NONE', #201, #309 ) ;
#276 = ORIENTED_EDGE ( 'NONE', *, *, #95, .T. ) ;
#277 = PERSON_AND_ORGANIZATION_ROLE ( 'design_supplier' ) ;
#278 = DIRECTION ( 'NONE',  ( 0.0000000000000000000, 1.000000000000000000, 0.0000000000000000000 ) ) ;
#279 = ORIENTED_EDGE ( 'NONE', *, *, #191, .F. ) ;
#280 = CC_DESIGN_SECURITY_CLASSIFICATION ( #105, ( #165 ) ) ;
#281 = DIRECTION ( 'NONE',  ( 0.0000000000000000000, 1.000000000000000000, 0.0000000000000000000 ) ) ;
#282 = ADVANCED_FACE ( 'NONE', ( #284 ), #235, .T. ) ;
#283 = ORIENTED_EDGE ( 'NONE', *, *, #191, .T. ) ;
#284 = FACE_OUTER_BOUND ( 'NONE', #21, .T. ) ;
#285 = DIRECTION ( 'NONE',  ( 1.798245827342160317E-15, -0.8571673007021098911, 0.5150380749100582634 ) ) ;
#286 = AXIS2_PLACEMENT_3D ( 'NONE', #14, #38, #97 ) ;
#287 = PERSON_AND_ORGANIZATION_ROLE ( 'classification_officer' ) ;
#288 = EDGE_CURVE ( 'NONE', #109, #67, #102, .T. ) ;
#289 = DIRECTION ( 'NONE',  ( -3.491481338843133355E-15, 1.224646799147353207E-16, -1.000000000000000000 ) ) ;
#290 = ADVANCED_FACE ( 'NONE', ( #243 ), #274, .T. ) ;
#291 = ORIENTED_EDGE ( 'NONE', *, *, #34, .F. ) ;
#292 = CARTESIAN_POINT ( 'NONE',  ( 2.762189127443346699E-13, -3.200000000000009504, 79.00000000000000000 ) ) ;
#293 = VERTEX_POINT ( 'NONE', #142 ) ;
#294 = AXIS2_PLACEMENT_3D ( 'NONE', #272, #81, #114 ) ;
#295 = SHAPE_DEFINITION_REPRESENTATION ( #327, #32 ) ;
#296 = CARTESIAN_POINT ( 'NONE',  ( 1.710332578358781691E-30, 3.999999999999996447, 4.898587196589408884E-16 ) ) ;
#297 = AXIS2_PLACEMENT_3D ( 'NONE', #246, #223, #148 ) ;
#298 = CYLINDRICAL_SURFACE ( 'NONE', #11, 3.999999999999996447 ) ;
#299 = EDGE_CURVE ( 'NONE', #182, #322, #140, .T. ) ;
#300 = CARTESIAN_POINT ( 'NONE',  ( 8.881433273980853872E-15, 3.999999999999990674, 2.403442476110262405 ) ) ;
#301 = EDGE_LOOP ( 'NONE', ( #276, #206, #154, #3 ) ) ;
#302 = AXIS2_PLACEMENT_3D ( 'NONE', #79, #126, #159 ) ;
#303 = DATE_TIME_ROLE ( 'creation_date' ) ;
#304 = EDGE_CURVE ( 'NONE', #322, #182, #312, .T. ) ;
#305 = VECTOR ( 'NONE', #2, 1000.000000000000114 ) ;
#306 = DIRECTION ( 'NONE',  ( 0.0000000000000000000, 1.000000000000000000, 0.0000000000000000000 ) ) ;
#307 = LINE ( 'NONE', #76, #229 ) ;
#308 = DIRECTION ( 'NONE',  ( 3.491481338843133355E-15, -1.224646799147353207E-16, 1.000000000000000000 ) ) ;
#309 = VECTOR ( 'NONE', #46, 999.9999999999998863 ) ;
#310 = ORIENTED_EDGE ( 'NONE', *, *, #299, .F. ) ;
#311 = AXIS2_PLACEMENT_3D ( 'NONE', #136, #6, #313 ) ;
#312 = CIRCLE ( 'NONE', #328, 3.999999999999990674 ) ;
#313 = DIRECTION ( 'NONE',  ( -4.275831445896958607E-31, -1.000000000000000000, -1.224646799147353207E-16 ) ) ;
#314 = EDGE_CURVE ( 'NONE', #179, #182, #212, .T. ) ;
#315 = DIRECTION ( 'NONE',  ( -2.382254525458708792E-15, -0.7071067811865495711, -0.7071067811865455743 ) ) ;
#316 = APPLICATION_CONTEXT ( 'configuration controlled 3d designs of mechanical parts and assemblies' ) ;
#317 = APPROVAL_DATE_TIME ( #324, #138 ) ;
#318 = ORIENTED_EDGE ( 'NONE', *, *, #95, .F. ) ;
#319 = ORIENTED_EDGE ( 'NONE', *, *, #242, .T. ) ;
#320 = SECURITY_CLASSIFICATION_LEVEL ( 'unclassified' ) ;
#321 = CC_DESIGN_PERSON_AND_ORGANIZATION_ASSIGNMENT ( #187, #287, ( #105 ) ) ;
#322 = VERTEX_POINT ( 'NONE', #300 ) ;
#323 = DIRECTION ( 'NONE',  ( 1.000000000000000000, 0.0000000000000000000, 0.0000000000000000000 ) ) ;
#324 = DATE_AND_TIME ( #222, #128 ) ;
#325 = ORIENTED_EDGE ( 'NONE', *, *, #185, .T. ) ;
#326 = EDGE_LOOP ( 'NONE', ( #47, #125, #160 ) ) ;
#327 = PRODUCT_DEFINITION_SHAPE ( 'NONE', 'NONE',  #174 ) ;
#328 = AXIS2_PLACEMENT_3D ( 'NONE', #9, #4, #1 ) ;
#329 = UNCERTAINTY_MEASURE_WITH_UNIT (LENGTH_MEASURE( 1.000000000000000082E-05 ), #22, 'distance_accuracy_value', 'NONE');
#330 = CARTESIAN_POINT ( 'NONE',  ( 2.758270257686075477E-13, -9.674709713264090904E-15, 79.00000000000000000 ) ) ;
#331 = DIRECTION ( 'NONE',  ( 4.275831445896957731E-31, 1.000000000000000000, 1.224646799147353207E-16 ) ) ;
#332 = CARTESIAN_POINT ( 'NONE',  ( 1.841417771428077425E-13, -3.999999999999997335, 27.00000000000000000 ) ) ;
#333 = EDGE_CURVE ( 'NONE', #293, #322, #129, .T. ) ;
#334 = CLOSED_SHELL ( 'NONE', ( #5, #10, #231, #282, #103, #56 ) ) ;
#335 = DIRECTION ( 'NONE',  ( -3.491481338843133355E-15, 1.224646799147353207E-16, -1.000000000000000000 ) ) ;
#336 = ORIENTED_EDGE ( 'NONE', *, *, #66, .T. ) ;
#337 = AXIS2_PLACEMENT_3D ( 'NONE', #74, #181, #72 ) ;
ENDSEC;
END-ISO-10303-21;
