ISO-10303-21;
HEADER;
FILE_DESCRIPTION (( 'STEP AP203' ),
    '1' );
FILE_NAME ('42789.step',
    '2021-09-21T07:37:56',
    ( '' ),
    ( '' ),
    'SwSTEP 2.0',
    'SolidWorks 2019',
    '' );
FILE_SCHEMA (( 'CONFIG_CONTROL_DESIGN' ));
ENDSEC;

DATA;
#1 = ORIENTED_EDGE ( 'NONE', *, *, #235, .T. ) ;
#2 = ADVANCED_BREP_SHAPE_REPRESENTATION ( '42789', ( #151, #241, #16 ), #121 ) ;
#3 = EDGE_LOOP ( 'NONE', ( #265, #70 ) ) ;
#4 = APPROVAL_DATE_TIME ( #194, #101 ) ;
#5 = LINE ( 'NONE', #204, #181 ) ;
#6 = PERSON_AND_ORGANIZATION ( #185, #67 ) ;
#7 = VECTOR ( 'NONE', #233, 1000.000000000000000 ) ;
#8 = APPROVAL ( #142, 'UNSPECIFIED' ) ;
#9 = FACE_OUTER_BOUND ( 'NONE', #66, .T. ) ;
#10 = DESIGN_CONTEXT ( 'detailed design', #226, 'design' ) ;
#11 = PERSON_AND_ORGANIZATION_ROLE ( 'classification_officer' ) ;
#12 = DIRECTION ( 'NONE',  ( -2.468850131082279149E-15, 0.7071067811865435759, -0.7071067811865514585 ) ) ;
#13 = CARTESIAN_POINT ( 'NONE',  ( 0.0000000000000000000, 0.0000000000000000000, 0.0000000000000000000 ) ) ;
#14 = ADVANCED_FACE ( 'NONE', ( #195 ), #239, .T. ) ;
#15 = CARTESIAN_POINT ( 'NONE',  ( 1.160578910353666357E-13, -3.999999999999994227, 4.000000000000035527 ) ) ;
#16 = AXIS2_PLACEMENT_3D ( 'NONE', #51, #172, #155 ) ;
#17 = DIRECTION ( 'NONE',  ( 7.703719777548956549E-31, 1.000000000000000000, 2.168404344971012566E-16 ) ) ;
#18 = AXIS2_PLACEMENT_3D ( 'NONE', #207, #145, #167 ) ;
#19 = CC_DESIGN_APPROVAL ( #64, ( #208 ) ) ;
#20 = PLANE ( 'NONE',  #144 ) ;
#21 = CC_DESIGN_PERSON_AND_ORGANIZATION_ASSIGNMENT ( #259, #214, ( #231 ) ) ;
#22 = ORIENTED_EDGE ( 'NONE', *, *, #179, .F. ) ;
#23 = VECTOR ( 'NONE', #201, 999.9999999999998863 ) ;
#24 = VERTEX_POINT ( 'NONE', #99 ) ;
#25 = APPROVAL_ROLE ( '' ) ;
#26 = CIRCLE ( 'NONE', #220, 3.200000000000001066 ) ;
#27 = VERTEX_POINT ( 'NONE', #74 ) ;
#28 = CARTESIAN_POINT ( 'NONE',  ( 1.396592535537265648E-14, -3.999999999999994227, 4.000000000000035527 ) ) ;
#29 = APPROVAL_DATE_TIME ( #163, #8 ) ;
#30 = PERSON_AND_ORGANIZATION ( #185, #67 ) ;
#31 = AXIS2_PLACEMENT_3D ( 'NONE', #122, #251, #199 ) ;
#32 = CARTESIAN_POINT ( 'NONE',  ( 4.898587196589392121E-16, -3.999999999999996447, -4.898587196589424662E-16 ) ) ;
#33 = DIRECTION ( 'NONE',  ( 0.0000000000000000000, 1.000000000000000000, 0.0000000000000000000 ) ) ;
#34 = CARTESIAN_POINT ( 'NONE',  ( 1.396592535537265964E-14, -4.898587196589458188E-16, 4.000000000000036415 ) ) ;
#35 = LOCAL_TIME ( 9, 37, 56.00000000000000000, #111 ) ;
#36 = PRODUCT_DEFINITION ( 'UNKNOWN', '', #114, #10 ) ;
#37 =( NAMED_UNIT ( * ) PLANE_ANGLE_UNIT ( ) SI_UNIT ( $, .RADIAN. ) );
#38 = DIRECTION ( 'NONE',  ( 0.0000000000000000000, 1.000000000000000000, 0.0000000000000000000 ) ) ;
#39 = ADVANCED_FACE ( 'NONE', ( #180 ), #147, .T. ) ;
#40 = DATE_TIME_ROLE ( 'creation_date' ) ;
#41 = ORIENTED_EDGE ( 'NONE', *, *, #60, .F. ) ;
#42 = EDGE_LOOP ( 'NONE', ( #91, #72, #116, #221 ) ) ;
#43 = AXIS2_PLACEMENT_3D ( 'NONE', #182, #75, #164 ) ;
#44 = CALENDAR_DATE ( 2021, 21, 9 ) ;
#45 = EDGE_LOOP ( 'NONE', ( #192, #219, #159, #69 ) ) ;
#46 = CC_DESIGN_DATE_AND_TIME_ASSIGNMENT ( #76, #97, ( #208 ) ) ;
#47 = EDGE_LOOP ( 'NONE', ( #173, #130 ) ) ;
#48 = ORIENTED_EDGE ( 'NONE', *, *, #248, .T. ) ;
#49 = DIRECTION ( 'NONE',  ( -3.491481338843133355E-15, 1.224646799147353207E-16, -1.000000000000000000 ) ) ;
#50 = CC_DESIGN_PERSON_AND_ORGANIZATION_ASSIGNMENT ( #129, #268, ( #114 ) ) ;
#51 = CARTESIAN_POINT ( 'NONE',  ( 0.0000000000000000000, 0.0000000000000000000, 0.0000000000000000000 ) ) ;
#52 = DIRECTION ( 'NONE',  ( 0.0000000000000000000, 1.000000000000000000, 0.0000000000000000000 ) ) ;
#53 = SECURITY_CLASSIFICATION_LEVEL ( 'unclassified' ) ;
#54 = DIRECTION ( 'NONE',  ( -3.491481338843133355E-15, 1.224646799147353207E-16, -1.000000000000000000 ) ) ;
#55 = CIRCLE ( 'NONE', #202, 3.999999999999993339 ) ;
#56 = CARTESIAN_POINT ( 'NONE',  ( 1.396592535537265964E-14, -4.898587196589458188E-16, 4.000000000000036415 ) ) ;
#57 = DIRECTION ( 'NONE',  ( -4.275831445896958607E-31, -1.000000000000000000, -1.224646799147353207E-16 ) ) ;
#58 = CARTESIAN_POINT ( 'NONE',  ( 0.0000000000000000000, 0.0000000000000000000, 0.0000000000000000000 ) ) ;
#59 = APPROVAL_PERSON_ORGANIZATION ( #218, #64, #139 ) ;
#60 = EDGE_CURVE ( 'NONE', #261, #283, #152, .T. ) ;
#61 = CARTESIAN_POINT ( 'NONE',  ( 2.199633243471174140E-13, 2.399615652258961499E-32, 63.00000000000000000 ) ) ;
#62 = LINE ( 'NONE', #150, #244 ) ;
#63 = LOCAL_TIME ( 9, 37, 56.00000000000000000, #112 ) ;
#64 = APPROVAL ( #286, 'UNSPECIFIED' ) ;
#65 = APPROVAL_ROLE ( '' ) ;
#66 = EDGE_LOOP ( 'NONE', ( #284, #48, #135 ) ) ;
#67 = ORGANIZATION ( 'UNSPECIFIED', 'UNSPECIFIED', '' ) ;
#68 = CC_DESIGN_PERSON_AND_ORGANIZATION_ASSIGNMENT ( #6, #95, ( #114 ) ) ;
#69 = ORIENTED_EDGE ( 'NONE', *, *, #188, .F. ) ;
#70 = ORIENTED_EDGE ( 'NONE', *, *, #285, .F. ) ;
#71 = ADVANCED_FACE ( 'NONE', ( #253 ), #269, .T. ) ;
#72 = ORIENTED_EDGE ( 'NONE', *, *, #264, .T. ) ;
#73 = AXIS2_PLACEMENT_3D ( 'NONE', #34, #187, #124 ) ;
#74 = CARTESIAN_POINT ( 'NONE',  ( 2.199633243471174140E-13, 3.199999999999993072, 63.00000000000000000 ) ) ;
#75 = DIRECTION ( 'NONE',  ( -3.491481338843133355E-15, 1.224646799147353207E-16, -1.000000000000000000 ) ) ;
#76 = DATE_AND_TIME ( #203, #88 ) ;
#77 = DIRECTION ( 'NONE',  ( -3.491481338843133355E-15, 1.224646799147353207E-16, -1.000000000000000000 ) ) ;
#78 = LOCAL_TIME ( 9, 37, 56.00000000000000000, #119 ) ;
#79 = LINE ( 'NONE', #118, #23 ) ;
#80 = DIRECTION ( 'NONE',  ( -3.491481338843133355E-15, 1.224646799147353207E-16, -1.000000000000000000 ) ) ;
#81 = FACE_OUTER_BOUND ( 'NONE', #3, .T. ) ;
#82 = EDGE_CURVE ( 'NONE', #158, #246, #250, .T. ) ;
#83 = AXIS2_PLACEMENT_3D ( 'NONE', #176, #230, #52 ) ;
#84 = DIRECTION ( 'NONE',  ( 2.555445736705828206E-15, 0.7071067811865435759, 0.7071067811865515695 ) ) ;
#85 = PRODUCT_DEFINITION_SHAPE ( 'NONE', 'NONE',  #36 ) ;
#86 =( LENGTH_UNIT ( ) NAMED_UNIT ( * ) SI_UNIT ( .MILLI., .METRE. ) );
#87 = APPROVAL_STATUS ( 'not_yet_approved' ) ;
#88 = LOCAL_TIME ( 9, 37, 56.00000000000000000, #271 ) ;
#89 = CC_DESIGN_SECURITY_CLASSIFICATION ( #208, ( #114 ) ) ;
#90 = EDGE_LOOP ( 'NONE', ( #108, #177, #1 ) ) ;
#91 = ORIENTED_EDGE ( 'NONE', *, *, #154, .F. ) ;
#92 = AXIS2_PLACEMENT_3D ( 'NONE', #61, #103, #106 ) ;
#93 = EDGE_CURVE ( 'NONE', #27, #243, #26, .T. ) ;
#94 = APPLICATION_CONTEXT ( 'configuration controlled 3d designs of mechanical parts and assemblies' ) ;
#95 = PERSON_AND_ORGANIZATION_ROLE ( 'creator' ) ;
#96 = LINE ( 'NONE', #28, #234 ) ;
#97 = DATE_TIME_ROLE ( 'classification_date' ) ;
#98 = FACE_OUTER_BOUND ( 'NONE', #42, .T. ) ;
#99 = CARTESIAN_POINT ( 'NONE',  ( 1.160578910353664843E-13, -4.000000000000008882, 62.19999999999998863 ) ) ;
#100 = DIRECTION ( 'NONE',  ( -3.491481338843133355E-15, 1.224646799147353207E-16, -1.000000000000000000 ) ) ;
#101 = APPROVAL ( #87, 'UNSPECIFIED' ) ;
#102 = CARTESIAN_POINT ( 'NONE',  ( 1.710332578358781691E-30, 3.999999999999996447, 4.898587196589408884E-16 ) ) ;
#103 = DIRECTION ( 'NONE',  ( -3.491481338843133355E-15, 1.224646799147353207E-16, -1.000000000000000000 ) ) ;
#104 = CIRCLE ( 'NONE', #137, 4.000000000000000888 ) ;
#105 = CARTESIAN_POINT ( 'NONE',  ( 1.396592535537267226E-14, -8.673617379884126191E-16, 4.000000000000039968 ) ) ;
#106 = DIRECTION ( 'NONE',  ( 4.275831445896958607E-31, 1.000000000000000000, 1.224646799147353207E-16 ) ) ;
#107 = AXIS2_PLACEMENT_3D ( 'NONE', #13, #100, #206 ) ;
#108 = ORIENTED_EDGE ( 'NONE', *, *, #248, .F. ) ;
#109 = EDGE_CURVE ( 'NONE', #243, #24, #79, .T. ) ;
#110 = ORIENTED_EDGE ( 'NONE', *, *, #188, .T. ) ;
#111 = COORDINATED_UNIVERSAL_TIME_OFFSET ( 1, 0, .AHEAD. ) ;
#112 = COORDINATED_UNIVERSAL_TIME_OFFSET ( 1, 0, .AHEAD. ) ;
#113 = ORIENTED_EDGE ( 'NONE', *, *, #109, .F. ) ;
#114 = PRODUCT_DEFINITION_FORMATION_WITH_SPECIFIED_SOURCE ( 'ANY', '', #231, .NOT_KNOWN. ) ;
#115 = ADVANCED_FACE ( 'NONE', ( #9 ), #128, .T. ) ;
#116 = ORIENTED_EDGE ( 'NONE', *, *, #209, .T. ) ;
#117 = APPROVAL_DATE_TIME ( #193, #64 ) ;
#118 = CARTESIAN_POINT ( 'NONE',  ( 2.203552113228445614E-13, -3.200000000000008615, 63.00000000000000000 ) ) ;
#119 = COORDINATED_UNIVERSAL_TIME_OFFSET ( 1, 0, .AHEAD. ) ;
#120 = DIRECTION ( 'NONE',  ( -3.491481338843133355E-15, 1.224646799147353207E-16, -1.000000000000000000 ) ) ;
#121 =( GEOMETRIC_REPRESENTATION_CONTEXT ( 3 ) GLOBAL_UNCERTAINTY_ASSIGNED_CONTEXT ( ( #281 ) ) GLOBAL_UNIT_ASSIGNED_CONTEXT ( ( #86, #37, #127 ) ) REPRESENTATION_CONTEXT ( 'NONE', 'WORKASPACE' ) );
#122 = CARTESIAN_POINT ( 'NONE',  ( 1.396592535537267226E-14, -8.673617379884126191E-16, 4.000000000000039968 ) ) ;
#123 = DIRECTION ( 'NONE',  ( -3.491481338843133355E-15, 1.224646799147353207E-16, -1.000000000000000000 ) ) ;
#124 = DIRECTION ( 'NONE',  ( -7.703719777548956549E-31, -1.000000000000000000, -2.168404344971012566E-16 ) ) ;
#125 = DIRECTION ( 'NONE',  ( 3.491481338843133355E-15, -1.224646799147353207E-16, 1.000000000000000000 ) ) ;
#126 = LINE ( 'NONE', #102, #7 ) ;
#127 =( NAMED_UNIT ( * ) SI_UNIT ( $, .STERADIAN. ) SOLID_ANGLE_UNIT ( ) );
#128 = CONICAL_SURFACE ( 'NONE', #18, 3.999999999999993339, 0.7853981633974428389 ) ;
#129 = PERSON_AND_ORGANIZATION ( #185, #67 ) ;
#130 = ORIENTED_EDGE ( 'NONE', *, *, #82, .T. ) ;
#131 = ADVANCED_FACE ( 'NONE', ( #232 ), #157, .T. ) ;
#132 = ORIENTED_EDGE ( 'NONE', *, *, #198, .T. ) ;
#133 = PERSON_AND_ORGANIZATION ( #185, #67 ) ;
#134 = EDGE_CURVE ( 'NONE', #217, #283, #96, .T. ) ;
#135 = ORIENTED_EDGE ( 'NONE', *, *, #60, .T. ) ;
#136 = EDGE_LOOP ( 'NONE', ( #113, #197, #110, #247 ) ) ;
#137 = AXIS2_PLACEMENT_3D ( 'NONE', #170, #80, #256 ) ;
#138 = PRODUCT_RELATED_PRODUCT_CATEGORY ( 'detail', '', ( #231 ) ) ;
#139 = APPROVAL_ROLE ( '' ) ;
#140 = APPLICATION_PROTOCOL_DEFINITION ( 'international standard', 'config_control_design', 1994, #226 ) ;
#141 = CARTESIAN_POINT ( 'NONE',  ( 1.396592535537265964E-14, -4.898587196589458188E-16, 4.000000000000036415 ) ) ;
#142 = APPROVAL_STATUS ( 'not_yet_approved' ) ;
#143 = CARTESIAN_POINT ( 'NONE',  ( 2.199633243471174140E-13, -7.715274834628325378E-15, 63.00000000000000000 ) ) ;
#144 = AXIS2_PLACEMENT_3D ( 'NONE', #105, #125, #57 ) ;
#145 = DIRECTION ( 'NONE',  ( 3.491481338843133355E-15, -1.224646799147353207E-16, 1.000000000000000000 ) ) ;
#146 = APPLICATION_PROTOCOL_DEFINITION ( 'international standard', 'config_control_design', 1994, #94 ) ;
#147 = CONICAL_SURFACE ( 'NONE', #216, 3.200000000000001066, 0.7853981633974426169 ) ;
#148 = CARTESIAN_POINT ( 'NONE',  ( 1.396592535537265964E-14, -4.898587196589458188E-16, 4.000000000000036415 ) ) ;
#149 = CARTESIAN_POINT ( 'NONE',  ( 1.396592535537266279E-14, 3.999999999999992450, 4.000000000000037303 ) ) ;
#150 = CARTESIAN_POINT ( 'NONE',  ( 1.445578407503160339E-14, 3.999999999999992450, 4.000000000000037303 ) ) ;
#151 = MANIFOLD_SOLID_BREP ( 'Corps-Déplacer/Copier1[1]', #282 ) ;
#152 = CIRCLE ( 'NONE', #266, 3.999999999999993339 ) ;
#153 = PERSON_AND_ORGANIZATION_ROLE ( 'creator' ) ;
#154 = EDGE_CURVE ( 'NONE', #24, #158, #228, .T. ) ;
#155 = DIRECTION ( 'NONE',  ( 1.000000000000000000, 0.0000000000000000000, 0.0000000000000000000 ) ) ;
#156 = COORDINATED_UNIVERSAL_TIME_OFFSET ( 1, 0, .AHEAD. ) ;
#157 = CONICAL_SURFACE ( 'NONE', #73, 3.999999999999993339, 0.7853981633974428389 ) ;
#158 = VERTEX_POINT ( 'NONE', #15 ) ;
#159 = ORIENTED_EDGE ( 'NONE', *, *, #198, .F. ) ;
#160 = ORIENTED_EDGE ( 'NONE', *, *, #154, .T. ) ;
#161 = PLANE ( 'NONE',  #31 ) ;
#162 = DIRECTION ( 'NONE',  ( 7.703719777548956549E-31, 1.000000000000000000, 2.168404344971012566E-16 ) ) ;
#163 = DATE_AND_TIME ( #245, #196 ) ;
#164 = DIRECTION ( 'NONE',  ( 7.703719777548956549E-31, 1.000000000000000000, 2.168404344971012566E-16 ) ) ;
#165 = DIRECTION ( 'NONE',  ( 4.275831445896957731E-31, 1.000000000000000000, 1.224646799147353207E-16 ) ) ;
#166 = CLOSED_SHELL ( 'NONE', ( #115, #131, #222 ) ) ;
#167 = DIRECTION ( 'NONE',  ( -7.703719777548956549E-31, -1.000000000000000000, -2.168404344971012566E-16 ) ) ;
#168 = CIRCLE ( 'NONE', #211, 4.000000000000000888 ) ;
#169 = ADVANCED_FACE ( 'NONE', ( #276 ), #161, .F. ) ;
#170 = CARTESIAN_POINT ( 'NONE',  ( 2.171701392760428568E-13, -7.617303090696535366E-15, 62.19999999999998863 ) ) ;
#171 = CC_DESIGN_APPROVAL ( #101, ( #114 ) ) ;
#172 = DIRECTION ( 'NONE',  ( 0.0000000000000000000, 0.0000000000000000000, 1.000000000000000000 ) ) ;
#173 = ORIENTED_EDGE ( 'NONE', *, *, #179, .T. ) ;
#174 = ORIENTED_EDGE ( 'NONE', *, *, #209, .F. ) ;
#175 = CIRCLE ( 'NONE', #43, 3.999999999999993339 ) ;
#176 = CARTESIAN_POINT ( 'NONE',  ( 2.199633243471174140E-13, -7.715274834628325378E-15, 63.00000000000000000 ) ) ;
#177 = ORIENTED_EDGE ( 'NONE', *, *, #134, .T. ) ;
#178 = MECHANICAL_CONTEXT ( 'NONE', #94, 'mechanical' ) ;
#179 = EDGE_CURVE ( 'NONE', #246, #158, #175, .T. ) ;
#180 = FACE_OUTER_BOUND ( 'NONE', #136, .T. ) ;
#181 = VECTOR ( 'NONE', #12, 1000.000000000000000 ) ;
#182 = CARTESIAN_POINT ( 'NONE',  ( 1.396592535537265964E-14, -4.898587196589458188E-16, 4.000000000000036415 ) ) ;
#183 = CYLINDRICAL_SURFACE ( 'NONE', #257, 3.999999999999996447 ) ;
#184 = DIRECTION ( 'NONE',  ( -3.491481338843133355E-15, 1.224646799147353207E-16, -1.000000000000000000 ) ) ;
#185 = PERSON ( 'UNSPECIFIED', 'UNSPECIFIED', 'UNSPECIFIED', ('UNSPECIFIED'), ('UNSPECIFIED'), ('UNSPECIFIED') ) ;
#186 = AXIS2_PLACEMENT_3D ( 'NONE', #236, #212, #278 ) ;
#187 = DIRECTION ( 'NONE',  ( 3.491481338843133355E-15, -1.224646799147353207E-16, 1.000000000000000000 ) ) ;
#188 = EDGE_CURVE ( 'NONE', #27, #249, #5, .T. ) ;
#189 = ADVANCED_FACE ( 'NONE', ( #98 ), #183, .T. ) ;
#190 = EDGE_LOOP ( 'NONE', ( #132, #160, #22, #174 ) ) ;
#191 = PERSON_AND_ORGANIZATION ( #185, #67 ) ;
#192 = ORIENTED_EDGE ( 'NONE', *, *, #93, .T. ) ;
#193 = DATE_AND_TIME ( #223, #35 ) ;
#194 = DATE_AND_TIME ( #200, #63 ) ;
#195 = FACE_OUTER_BOUND ( 'NONE', #45, .T. ) ;
#196 = LOCAL_TIME ( 9, 37, 56.00000000000000000, #156 ) ;
#197 = ORIENTED_EDGE ( 'NONE', *, *, #285, .T. ) ;
#198 = EDGE_CURVE ( 'NONE', #249, #24, #104, .T. ) ;
#199 = DIRECTION ( 'NONE',  ( -4.275831445896958607E-31, -1.000000000000000000, -1.224646799147353207E-16 ) ) ;
#200 = CALENDAR_DATE ( 2021, 21, 9 ) ;
#201 = DIRECTION ( 'NONE',  ( -2.382254525458730880E-15, -0.7071067811865434649, -0.7071067811865516806 ) ) ;
#202 = AXIS2_PLACEMENT_3D ( 'NONE', #148, #258, #17 ) ;
#203 = CALENDAR_DATE ( 2021, 21, 9 ) ;
#204 = CARTESIAN_POINT ( 'NONE',  ( 2.199633243471174140E-13, 3.199999999999993072, 63.00000000000000000 ) ) ;
#205 = CC_DESIGN_PERSON_AND_ORGANIZATION_ASSIGNMENT ( #30, #11, ( #208 ) ) ;
#206 = DIRECTION ( 'NONE',  ( 4.275831445896957731E-31, 1.000000000000000000, 1.224646799147353207E-16 ) ) ;
#207 = CARTESIAN_POINT ( 'NONE',  ( 1.396592535537265964E-14, -4.898587196589458188E-16, 4.000000000000036415 ) ) ;
#208 = SECURITY_CLASSIFICATION ( '', '', #53 ) ;
#209 = EDGE_CURVE ( 'NONE', #249, #246, #126, .T. ) ;
#210 = DIRECTION ( 'NONE',  ( -3.491481338843133355E-15, 1.224646799147353207E-16, -1.000000000000000000 ) ) ;
#211 = AXIS2_PLACEMENT_3D ( 'NONE', #240, #210, #38 ) ;
#212 = DIRECTION ( 'NONE',  ( -3.491481338843133355E-15, 1.224646799147353207E-16, -1.000000000000000000 ) ) ;
#213 = CARTESIAN_POINT ( 'NONE',  ( 1.445578407503160339E-14, 3.999999999999992450, 4.000000000000037303 ) ) ;
#214 = PERSON_AND_ORGANIZATION_ROLE ( 'design_owner' ) ;
#215 = ORIENTED_EDGE ( 'NONE', *, *, #235, .F. ) ;
#216 = AXIS2_PLACEMENT_3D ( 'NONE', #267, #49, #33 ) ;
#217 = VERTEX_POINT ( 'NONE', #58 ) ;
#218 = PERSON_AND_ORGANIZATION ( #185, #67 ) ;
#219 = ORIENTED_EDGE ( 'NONE', *, *, #109, .T. ) ;
#220 = AXIS2_PLACEMENT_3D ( 'NONE', #143, #120, #273 ) ;
#221 = ORIENTED_EDGE ( 'NONE', *, *, #82, .F. ) ;
#222 = ADVANCED_FACE ( 'NONE', ( #277 ), #20, .T. ) ;
#223 = CALENDAR_DATE ( 2021, 21, 9 ) ;
#224 = DIRECTION ( 'NONE',  ( 2.468850131082278754E-15, -0.7071067811865437980, 0.7071067811865513475 ) ) ;
#225 = DIRECTION ( 'NONE',  ( 7.703719777548956549E-31, 1.000000000000000000, 2.168404344971012566E-16 ) ) ;
#226 = APPLICATION_CONTEXT ( 'configuration controlled 3d designs of mechanical parts and assemblies' ) ;
#227 = PERSON_AND_ORGANIZATION ( #185, #67 ) ;
#228 = LINE ( 'NONE', #32, #263 ) ;
#229 = APPROVAL_PERSON_ORGANIZATION ( #191, #8, #65 ) ;
#230 = DIRECTION ( 'NONE',  ( -3.491481338843133355E-15, 1.224646799147353207E-16, -1.000000000000000000 ) ) ;
#231 = PRODUCT ( '42789', '42789', '', ( #178 ) ) ;
#232 = FACE_OUTER_BOUND ( 'NONE', #90, .T. ) ;
#233 = DIRECTION ( 'NONE',  ( -3.491481338843133355E-15, 1.224646799147353207E-16, -1.000000000000000000 ) ) ;
#234 = VECTOR ( 'NONE', #224, 1000.000000000000000 ) ;
#235 = EDGE_CURVE ( 'NONE', #283, #261, #55, .T. ) ;
#236 = CARTESIAN_POINT ( 'NONE',  ( 2.199633243471174140E-13, -7.715274834628325378E-15, 63.00000000000000000 ) ) ;
#237 = CARTESIAN_POINT ( 'NONE',  ( 1.396592535537265648E-14, -3.999999999999994227, 4.000000000000035527 ) ) ;
#238 = CARTESIAN_POINT ( 'NONE',  ( 2.171701392760428568E-13, 3.999999999999993339, 62.19999999999998863 ) ) ;
#239 = CONICAL_SURFACE ( 'NONE', #83, 3.200000000000001066, 0.7853981633974426169 ) ;
#240 = CARTESIAN_POINT ( 'NONE',  ( 2.171701392760428568E-13, -7.617303090696535366E-15, 62.19999999999998863 ) ) ;
#241 = MANIFOLD_SOLID_BREP ( 'Corps-Déplacer/Copier1[2]', #166 ) ;
#242 = DATE_AND_TIME ( #44, #78 ) ;
#243 = VERTEX_POINT ( 'NONE', #280 ) ;
#244 = VECTOR ( 'NONE', #84, 1000.000000000000000 ) ;
#245 = CALENDAR_DATE ( 2021, 21, 9 ) ;
#246 = VERTEX_POINT ( 'NONE', #149 ) ;
#247 = ORIENTED_EDGE ( 'NONE', *, *, #264, .F. ) ;
#248 = EDGE_CURVE ( 'NONE', #217, #261, #62, .T. ) ;
#249 = VERTEX_POINT ( 'NONE', #238 ) ;
#250 = CIRCLE ( 'NONE', #279, 3.999999999999993339 ) ;
#251 = DIRECTION ( 'NONE',  ( 3.491481338843133355E-15, -1.224646799147353207E-16, 1.000000000000000000 ) ) ;
#252 = CIRCLE ( 'NONE', #186, 3.200000000000001066 ) ;
#253 = FACE_OUTER_BOUND ( 'NONE', #190, .T. ) ;
#254 = PLANE ( 'NONE',  #92 ) ;
#255 = CC_DESIGN_PERSON_AND_ORGANIZATION_ASSIGNMENT ( #227, #153, ( #36 ) ) ;
#256 = DIRECTION ( 'NONE',  ( 0.0000000000000000000, 1.000000000000000000, 0.0000000000000000000 ) ) ;
#257 = AXIS2_PLACEMENT_3D ( 'NONE', #272, #77, #165 ) ;
#258 = DIRECTION ( 'NONE',  ( -3.491481338843133355E-15, 1.224646799147353207E-16, -1.000000000000000000 ) ) ;
#259 = PERSON_AND_ORGANIZATION ( #185, #67 ) ;
#260 = EDGE_LOOP ( 'NONE', ( #215, #41 ) ) ;
#261 = VERTEX_POINT ( 'NONE', #213 ) ;
#262 = SHAPE_DEFINITION_REPRESENTATION ( #85, #2 ) ;
#263 = VECTOR ( 'NONE', #54, 1000.000000000000000 ) ;
#264 = EDGE_CURVE ( 'NONE', #24, #249, #168, .T. ) ;
#265 = ORIENTED_EDGE ( 'NONE', *, *, #93, .F. ) ;
#266 = AXIS2_PLACEMENT_3D ( 'NONE', #141, #123, #225 ) ;
#267 = CARTESIAN_POINT ( 'NONE',  ( 2.199633243471174140E-13, -7.715274834628325378E-15, 63.00000000000000000 ) ) ;
#268 = PERSON_AND_ORGANIZATION_ROLE ( 'design_supplier' ) ;
#269 = CYLINDRICAL_SURFACE ( 'NONE', #107, 3.999999999999996447 ) ;
#270 = CC_DESIGN_DATE_AND_TIME_ASSIGNMENT ( #242, #40, ( #36 ) ) ;
#271 = COORDINATED_UNIVERSAL_TIME_OFFSET ( 1, 0, .AHEAD. ) ;
#272 = CARTESIAN_POINT ( 'NONE',  ( 0.0000000000000000000, 0.0000000000000000000, 0.0000000000000000000 ) ) ;
#273 = DIRECTION ( 'NONE',  ( 0.0000000000000000000, 1.000000000000000000, 0.0000000000000000000 ) ) ;
#274 = APPROVAL_PERSON_ORGANIZATION ( #133, #101, #25 ) ;
#275 = ADVANCED_FACE ( 'NONE', ( #81 ), #254, .F. ) ;
#276 = FACE_OUTER_BOUND ( 'NONE', #47, .T. ) ;
#277 = FACE_OUTER_BOUND ( 'NONE', #260, .T. ) ;
#278 = DIRECTION ( 'NONE',  ( 0.0000000000000000000, 1.000000000000000000, 0.0000000000000000000 ) ) ;
#279 = AXIS2_PLACEMENT_3D ( 'NONE', #56, #184, #162 ) ;
#280 = CARTESIAN_POINT ( 'NONE',  ( 2.190076046592731920E-13, -3.200000000000008615, 63.00000000000000000 ) ) ;
#281 = UNCERTAINTY_MEASURE_WITH_UNIT (LENGTH_MEASURE( 1.000000000000000082E-05 ), #86, 'distance_accuracy_value', 'NONE');
#282 = CLOSED_SHELL ( 'NONE', ( #14, #71, #169, #189, #39, #275 ) ) ;
#283 = VERTEX_POINT ( 'NONE', #237 ) ;
#284 = ORIENTED_EDGE ( 'NONE', *, *, #134, .F. ) ;
#285 = EDGE_CURVE ( 'NONE', #243, #27, #252, .T. ) ;
#286 = APPROVAL_STATUS ( 'not_yet_approved' ) ;
#287 = CC_DESIGN_APPROVAL ( #8, ( #36 ) ) ;
ENDSEC;
END-ISO-10303-21;
