ISO-10303-21;
HEADER;
FILE_DESCRIPTION (( 'STEP AP203' ),
    '1' );
FILE_NAME ('42788.step',
    '2021-09-21T07:37:55',
    ( '' ),
    ( '' ),
    'SwSTEP 2.0',
    'SolidWorks 2019',
    '' );
FILE_SCHEMA (( 'CONFIG_CONTROL_DESIGN' ));
ENDSEC;

DATA;
#1 = ORIENTED_EDGE ( 'NONE', *, *, #43, .F. ) ;
#2 = ORIENTED_EDGE ( 'NONE', *, *, #116, .T. ) ;
#3 = COORDINATED_UNIVERSAL_TIME_OFFSET ( 1, 0, .AHEAD. ) ;
#4 = DIRECTION ( 'NONE',  ( -3.491481338843133355E-15, 1.224646799147353207E-16, -1.000000000000000000 ) ) ;
#5 = DATE_AND_TIME ( #47, #92 ) ;
#6 = CONICAL_SURFACE ( 'NONE', #206, 2.400000000000001243, 0.7853981633974396193 ) ;
#7 = ADVANCED_FACE ( 'NONE', ( #265 ), #70, .F. ) ;
#8 = PRODUCT_DEFINITION_SHAPE ( 'NONE', 'NONE',  #273 ) ;
#9 = DIRECTION ( 'NONE',  ( -2.468850131082286643E-15, 0.7071067811865414665, -0.7071067811865536790 ) ) ;
#10 = DESIGN_CONTEXT ( 'detailed design', #39, 'design' ) ;
#11 = DATE_AND_TIME ( #207, #115 ) ;
#12 = CARTESIAN_POINT ( 'NONE',  ( 1.969195475107526960E-13, 2.999999999999993783, 56.39999999999999147 ) ) ;
#13 = CYLINDRICAL_SURFACE ( 'NONE', #157, 2.999999999999997335 ) ;
#14 = EDGE_CURVE ( 'NONE', #222, #174, #161, .T. ) ;
#15 = DIRECTION ( 'NONE',  ( -3.491481338843133355E-15, 1.224646799147353207E-16, -1.000000000000000000 ) ) ;
#16 =( GEOMETRIC_REPRESENTATION_CONTEXT ( 3 ) GLOBAL_UNCERTAINTY_ASSIGNED_CONTEXT ( ( #281 ) ) GLOBAL_UNIT_ASSIGNED_CONTEXT ( ( #257, #235, #172 ) ) REPRESENTATION_CONTEXT ( 'NONE', 'WORKASPACE' ) );
#17 = FACE_OUTER_BOUND ( 'NONE', #86, .T. ) ;
#18 = DIRECTION ( 'NONE',  ( 5.135813185032640035E-31, 1.000000000000000000, 1.445602896647342368E-16 ) ) ;
#19 = EDGE_CURVE ( 'NONE', #249, #67, #175, .T. ) ;
#20 = PERSON_AND_ORGANIZATION_ROLE ( 'classification_officer' ) ;
#21 = ORIENTED_EDGE ( 'NONE', *, *, #267, .F. ) ;
#22 = AXIS2_PLACEMENT_3D ( 'NONE', #229, #15, #54 ) ;
#23 = AXIS2_PLACEMENT_3D ( 'NONE', #203, #145, #256 ) ;
#24 = ORIENTED_EDGE ( 'NONE', *, *, #43, .T. ) ;
#25 = MECHANICAL_CONTEXT ( 'NONE', #244, 'mechanical' ) ;
#26 = ORIENTED_EDGE ( 'NONE', *, *, #90, .F. ) ;
#27 = CIRCLE ( 'NONE', #170, 3.000000000000000888 ) ;
#28 = ORIENTED_EDGE ( 'NONE', *, *, #287, .T. ) ;
#29 = LINE ( 'NONE', #275, #68 ) ;
#30 = APPROVAL_DATE_TIME ( #221, #202 ) ;
#31 = PERSON_AND_ORGANIZATION ( #60, #126 ) ;
#32 = VECTOR ( 'NONE', #79, 1000.000000000000000 ) ;
#33 = FACE_OUTER_BOUND ( 'NONE', #285, .T. ) ;
#34 = CARTESIAN_POINT ( 'NONE',  ( 1.084183805627370017E-14, 2.999999999999993339, 3.000000000000027089 ) ) ;
#35 = CARTESIAN_POINT ( 'NONE',  ( 1.047444401652949315E-14, -3.673940397442091916E-16, 3.000000000000026645 ) ) ;
#36 = AXIS2_PLACEMENT_3D ( 'NONE', #230, #77, #76 ) ;
#37 = DIRECTION ( 'NONE',  ( -3.491481338843133355E-15, 1.224646799147353207E-16, -1.000000000000000000 ) ) ;
#38 = LOCAL_TIME ( 9, 37, 55.00000000000000000, #195 ) ;
#39 = APPLICATION_CONTEXT ( 'configuration controlled 3d designs of mechanical parts and assemblies' ) ;
#40 = CC_DESIGN_PERSON_AND_ORGANIZATION_ASSIGNMENT ( #135, #93, ( #58 ) ) ;
#41 = CARTESIAN_POINT ( 'NONE',  ( 0.0000000000000000000, 0.0000000000000000000, 0.0000000000000000000 ) ) ;
#42 = LINE ( 'NONE', #280, #162 ) ;
#43 = EDGE_CURVE ( 'NONE', #200, #269, #57, .T. ) ;
#44 = CALENDAR_DATE ( 2021, 21, 9 ) ;
#45 = ORIENTED_EDGE ( 'NONE', *, *, #250, .T. ) ;
#46 = LOCAL_TIME ( 9, 37, 55.00000000000000000, #53 ) ;
#47 = CALENDAR_DATE ( 2021, 21, 9 ) ;
#48 = ORIENTED_EDGE ( 'NONE', *, *, #192, .F. ) ;
#49 = CARTESIAN_POINT ( 'NONE',  ( 1.990144363140586139E-13, 1.799711739194219550E-32, 57.00000000000000000 ) ) ;
#50 = EDGE_LOOP ( 'NONE', ( #28, #89, #48, #87 ) ) ;
#51 = DIRECTION ( 'NONE',  ( 5.135813185032640035E-31, 1.000000000000000000, 1.445602896647342368E-16 ) ) ;
#52 = APPROVAL ( #240, 'UNSPECIFIED' ) ;
#53 = COORDINATED_UNIVERSAL_TIME_OFFSET ( 1, 0, .AHEAD. ) ;
#54 = DIRECTION ( 'NONE',  ( 0.0000000000000000000, 1.000000000000000000, 0.0000000000000000000 ) ) ;
#55 = APPLICATION_PROTOCOL_DEFINITION ( 'international standard', 'config_control_design', 1994, #39 ) ;
#56 = DIRECTION ( 'NONE',  ( 4.275831445896958607E-31, 1.000000000000000000, 1.224646799147353207E-16 ) ) ;
#57 = CIRCLE ( 'NONE', #36, 2.999999999999993339 ) ;
#58 = PRODUCT_DEFINITION_FORMATION_WITH_SPECIFIED_SOURCE ( 'ANY', '', #141, .NOT_KNOWN. ) ;
#59 = DIRECTION ( 'NONE',  ( -2.382254525458738374E-15, -0.7071067811865412445, -0.7071067811865536790 ) ) ;
#60 = PERSON ( 'UNSPECIFIED', 'UNSPECIFIED', 'UNSPECIFIED', ('UNSPECIFIED'), ('UNSPECIFIED'), ('UNSPECIFIED') ) ;
#61 = AXIS2_PLACEMENT_3D ( 'NONE', #142, #227, #205 ) ;
#62 = DIRECTION ( 'NONE',  ( 0.0000000000000000000, 1.000000000000000000, 0.0000000000000000000 ) ) ;
#63 = EDGE_CURVE ( 'NONE', #224, #67, #120, .T. ) ;
#64 = FACE_OUTER_BOUND ( 'NONE', #241, .T. ) ;
#65 = ORIENTED_EDGE ( 'NONE', *, *, #63, .T. ) ;
#66 = CALENDAR_DATE ( 2021, 21, 9 ) ;
#67 = VERTEX_POINT ( 'NONE', #34 ) ;
#68 = VECTOR ( 'NONE', #59, 1000.000000000000114 ) ;
#69 = CC_DESIGN_PERSON_AND_ORGANIZATION_ASSIGNMENT ( #253, #131, ( #141 ) ) ;
#70 = PLANE ( 'NONE',  #219 ) ;
#71 = ORIENTED_EDGE ( 'NONE', *, *, #14, .F. ) ;
#72 = ADVANCED_FACE ( 'NONE', ( #163 ), #106, .T. ) ;
#73 = ORIENTED_EDGE ( 'NONE', *, *, #267, .T. ) ;
#74 = CIRCLE ( 'NONE', #61, 2.400000000000001243 ) ;
#75 = VECTOR ( 'NONE', #81, 1000.000000000000000 ) ;
#76 = DIRECTION ( 'NONE',  ( 5.135813185032640035E-31, 1.000000000000000000, 1.445602896647342368E-16 ) ) ;
#77 = DIRECTION ( 'NONE',  ( -3.491481338843133355E-15, 1.224646799147353207E-16, -1.000000000000000000 ) ) ;
#78 = COORDINATED_UNIVERSAL_TIME_OFFSET ( 1, 0, .AHEAD. ) ;
#79 = DIRECTION ( 'NONE',  ( 2.468850131082278754E-15, -0.7071067811865437980, 0.7071067811865513475 ) ) ;
#80 = FACE_OUTER_BOUND ( 'NONE', #178, .T. ) ;
#81 = DIRECTION ( 'NONE',  ( -3.491481338843133355E-15, 1.224646799147353207E-16, -1.000000000000000000 ) ) ;
#82 = DIRECTION ( 'NONE',  ( 0.0000000000000000000, 1.000000000000000000, 0.0000000000000000000 ) ) ;
#83 = EDGE_CURVE ( 'NONE', #268, #174, #252, .T. ) ;
#84 = CARTESIAN_POINT ( 'NONE',  ( 1.047444401652949315E-14, -3.673940397442091916E-16, 3.000000000000026645 ) ) ;
#85 = SECURITY_CLASSIFICATION_LEVEL ( 'unclassified' ) ;
#86 = EDGE_LOOP ( 'NONE', ( #196, #158, #117, #71 ) ) ;
#87 = ORIENTED_EDGE ( 'NONE', *, *, #250, .F. ) ;
#88 = CIRCLE ( 'NONE', #147, 2.400000000000001243 ) ;
#89 = ORIENTED_EDGE ( 'NONE', *, *, #277, .T. ) ;
#90 = EDGE_CURVE ( 'NONE', #201, #268, #74, .T. ) ;
#91 = ORIENTED_EDGE ( 'NONE', *, *, #19, .T. ) ;
#92 = LOCAL_TIME ( 9, 37, 55.00000000000000000, #3 ) ;
#93 = PERSON_AND_ORGANIZATION_ROLE ( 'design_supplier' ) ;
#94 = CARTESIAN_POINT ( 'NONE',  ( 1.047444401652950577E-14, 4.336808689942070491E-16, 3.000000000000030198 ) ) ;
#95 = DATE_TIME_ROLE ( 'classification_date' ) ;
#96 = DIRECTION ( 'NONE',  ( -3.491481338843133355E-15, 1.224646799147353207E-16, -1.000000000000000000 ) ) ;
#97 = CARTESIAN_POINT ( 'NONE',  ( 1.047444401652949157E-14, -2.999999999999993783, 3.000000000000026201 ) ) ;
#98 = CC_DESIGN_SECURITY_CLASSIFICATION ( #245, ( #58 ) ) ;
#99 = DIRECTION ( 'NONE',  ( -3.491481338843133355E-15, 1.224646799147353207E-16, -1.000000000000000000 ) ) ;
#100 = ADVANCED_FACE ( 'NONE', ( #80 ), #13, .T. ) ;
#101 = CARTESIAN_POINT ( 'NONE',  ( 1.040643898033850957E-13, -3.000000000000007550, 56.39999999999999147 ) ) ;
#102 = CARTESIAN_POINT ( 'NONE',  ( 1.990144363140586139E-13, 2.399999999999994138, 57.00000000000000000 ) ) ;
#103 = CC_DESIGN_APPROVAL ( #264, ( #245 ) ) ;
#104 = DIRECTION ( 'NONE',  ( -5.135813185032640035E-31, -1.000000000000000000, -1.445602896647342368E-16 ) ) ;
#105 = DIRECTION ( 'NONE',  ( -3.491481338843133355E-15, 1.224646799147353207E-16, -1.000000000000000000 ) ) ;
#106 = CONICAL_SURFACE ( 'NONE', #22, 2.400000000000001243, 0.7853981633974396193 ) ;
#107 = CIRCLE ( 'NONE', #215, 2.999999999999993339 ) ;
#108 = ORIENTED_EDGE ( 'NONE', *, *, #192, .T. ) ;
#109 = ADVANCED_FACE ( 'NONE', ( #33 ), #231, .F. ) ;
#110 = PRODUCT_RELATED_PRODUCT_CATEGORY ( 'detail', '', ( #141 ) ) ;
#111 = ORIENTED_EDGE ( 'NONE', *, *, #14, .T. ) ;
#112 = APPROVAL_STATUS ( 'not_yet_approved' ) ;
#113 = PERSON_AND_ORGANIZATION_ROLE ( 'creator' ) ;
#114 = ORIENTED_EDGE ( 'NONE', *, *, #116, .F. ) ;
#115 = LOCAL_TIME ( 9, 37, 55.00000000000000000, #78 ) ;
#116 = EDGE_CURVE ( 'NONE', #224, #249, #186, .T. ) ;
#117 = ORIENTED_EDGE ( 'NONE', *, *, #83, .T. ) ;
#118 = CARTESIAN_POINT ( 'NONE',  ( 1.982976465481754348E-13, -2.400000000000007905, 57.00000000000000000 ) ) ;
#119 = DATE_AND_TIME ( #246, #38 ) ;
#120 = LINE ( 'NONE', #188, #214 ) ;
#121 = CC_DESIGN_APPROVAL ( #202, ( #273 ) ) ;
#122 = APPROVAL_PERSON_ORGANIZATION ( #274, #264, #177 ) ;
#123 = CARTESIAN_POINT ( 'NONE',  ( 1.047444401652950577E-14, 4.336808689942070491E-16, 3.000000000000030198 ) ) ;
#124 = DIRECTION ( 'NONE',  ( -3.491481338843133355E-15, 1.224646799147353207E-16, -1.000000000000000000 ) ) ;
#125 = DIRECTION ( 'NONE',  ( 3.491481338843133355E-15, -1.224646799147353207E-16, 1.000000000000000000 ) ) ;
#126 = ORGANIZATION ( 'UNSPECIFIED', 'UNSPECIFIED', '' ) ;
#127 = DIRECTION ( 'NONE',  ( -3.491481338843133355E-15, 1.224646799147353207E-16, -1.000000000000000000 ) ) ;
#128 = DIRECTION ( 'NONE',  ( -3.491481338843133355E-15, 1.224646799147353207E-16, -1.000000000000000000 ) ) ;
#129 = APPROVAL_PERSON_ORGANIZATION ( #271, #52, #204 ) ;
#130 = DIRECTION ( 'NONE',  ( 3.491481338843133355E-15, -1.224646799147353207E-16, 1.000000000000000000 ) ) ;
#131 = PERSON_AND_ORGANIZATION_ROLE ( 'design_owner' ) ;
#132 = ADVANCED_FACE ( 'NONE', ( #276 ), #233, .T. ) ;
#133 = AXIS2_PLACEMENT_3D ( 'NONE', #84, #173, #18 ) ;
#134 = EDGE_LOOP ( 'NONE', ( #114, #65, #180 ) ) ;
#135 = PERSON_AND_ORGANIZATION ( #60, #126 ) ;
#136 = ADVANCED_FACE ( 'NONE', ( #189 ), #144, .T. ) ;
#137 = ORIENTED_EDGE ( 'NONE', *, *, #63, .F. ) ;
#138 = ORIENTED_EDGE ( 'NONE', *, *, #19, .F. ) ;
#139 = CONICAL_SURFACE ( 'NONE', #185, 2.999999999999993339, 0.7853981633974428389 ) ;
#140 = DIRECTION ( 'NONE',  ( 1.000000000000000000, 0.0000000000000000000, 0.0000000000000000000 ) ) ;
#141 = PRODUCT ( '42788', '42788', '', ( #25 ) ) ;
#142 = CARTESIAN_POINT ( 'NONE',  ( 1.990144363140586139E-13, -6.980486755139912911E-15, 57.00000000000000000 ) ) ;
#143 = APPROVAL_DATE_TIME ( #5, #52 ) ;
#144 = PLANE ( 'NONE',  #191 ) ;
#145 = DIRECTION ( 'NONE',  ( 3.491481338843133355E-15, -1.224646799147353207E-16, 1.000000000000000000 ) ) ;
#146 = CLOSED_SHELL ( 'NONE', ( #132, #258, #136 ) ) ;
#147 = AXIS2_PLACEMENT_3D ( 'NONE', #168, #37, #238 ) ;
#148 = ADVANCED_BREP_SHAPE_REPRESENTATION ( '42788', ( #248, #151, #255 ), #16 ) ;
#149 = CARTESIAN_POINT ( 'NONE',  ( 1.282749433769086531E-30, 2.999999999999997335, 3.673940397442056417E-16 ) ) ;
#150 = AXIS2_PLACEMENT_3D ( 'NONE', #35, #96, #270 ) ;
#151 = MANIFOLD_SOLID_BREP ( 'Corps-Déplacer/Copier1[2]', #146 ) ;
#152 = CARTESIAN_POINT ( 'NONE',  ( 1.990144363140586139E-13, -6.980486755139912911E-15, 57.00000000000000000 ) ) ;
#153 = CC_DESIGN_DATE_AND_TIME_ASSIGNMENT ( #119, #197, ( #273 ) ) ;
#154 = APPROVAL_STATUS ( 'not_yet_approved' ) ;
#155 = APPROVAL_DATE_TIME ( #223, #264 ) ;
#156 = PERSON_AND_ORGANIZATION_ROLE ( 'creator' ) ;
#157 = AXIS2_PLACEMENT_3D ( 'NONE', #226, #99, #56 ) ;
#158 = ORIENTED_EDGE ( 'NONE', *, *, #90, .T. ) ;
#159 = ORIENTED_EDGE ( 'NONE', *, *, #182, .T. ) ;
#160 = CARTESIAN_POINT ( 'NONE',  ( 1.040643898033852472E-13, -2.999999999999993783, 3.000000000000026201 ) ) ;
#161 = CIRCLE ( 'NONE', #169, 3.000000000000000888 ) ;
#162 = VECTOR ( 'NONE', #128, 1000.000000000000000 ) ;
#163 = FACE_OUTER_BOUND ( 'NONE', #247, .T. ) ;
#164 = CC_DESIGN_DATE_AND_TIME_ASSIGNMENT ( #11, #95, ( #245 ) ) ;
#165 = CARTESIAN_POINT ( 'NONE',  ( 1.990144363140586139E-13, 2.399999999999994138, 57.00000000000000000 ) ) ;
#166 = CARTESIAN_POINT ( 'NONE',  ( 1.047444401652949315E-14, -3.673940397442091916E-16, 3.000000000000026645 ) ) ;
#167 = DIRECTION ( 'NONE',  ( -4.275831445896958607E-31, -1.000000000000000000, -1.224646799147353207E-16 ) ) ;
#168 = CARTESIAN_POINT ( 'NONE',  ( 1.990144363140586139E-13, -6.980486755139912911E-15, 57.00000000000000000 ) ) ;
#169 = AXIS2_PLACEMENT_3D ( 'NONE', #272, #4, #183 ) ;
#170 = AXIS2_PLACEMENT_3D ( 'NONE', #237, #105, #62 ) ;
#171 = CC_DESIGN_PERSON_AND_ORGANIZATION_ASSIGNMENT ( #218, #20, ( #245 ) ) ;
#172 =( NAMED_UNIT ( * ) SI_UNIT ( $, .STERADIAN. ) SOLID_ANGLE_UNIT ( ) );
#173 = DIRECTION ( 'NONE',  ( -3.491481338843133355E-15, 1.224646799147353207E-16, -1.000000000000000000 ) ) ;
#174 = VERTEX_POINT ( 'NONE', #12 ) ;
#175 = CIRCLE ( 'NONE', #150, 2.999999999999993339 ) ;
#176 = ORIENTED_EDGE ( 'NONE', *, *, #225, .F. ) ;
#177 = APPROVAL_ROLE ( '' ) ;
#178 = EDGE_LOOP ( 'NONE', ( #266, #111, #45, #1 ) ) ;
#179 = SHAPE_DEFINITION_REPRESENTATION ( #8, #148 ) ;
#180 = ORIENTED_EDGE ( 'NONE', *, *, #225, .T. ) ;
#181 = DIRECTION ( 'NONE',  ( 0.0000000000000000000, 0.0000000000000000000, 1.000000000000000000 ) ) ;
#182 = EDGE_CURVE ( 'NONE', #201, #222, #29, .T. ) ;
#183 = DIRECTION ( 'NONE',  ( 0.0000000000000000000, 1.000000000000000000, 0.0000000000000000000 ) ) ;
#184 = VECTOR ( 'NONE', #9, 999.9999999999998863 ) ;
#185 = AXIS2_PLACEMENT_3D ( 'NONE', #232, #130, #104 ) ;
#186 = LINE ( 'NONE', #97, #32 ) ;
#187 = DIRECTION ( 'NONE',  ( 4.275831445896958607E-31, 1.000000000000000000, 1.224646799147353207E-16 ) ) ;
#188 = CARTESIAN_POINT ( 'NONE',  ( 1.084183805627370017E-14, 2.999999999999993339, 3.000000000000027089 ) ) ;
#189 = FACE_OUTER_BOUND ( 'NONE', #286, .T. ) ;
#190 = CC_DESIGN_PERSON_AND_ORGANIZATION_ASSIGNMENT ( #31, #156, ( #58 ) ) ;
#191 = AXIS2_PLACEMENT_3D ( 'NONE', #123, #208, #167 ) ;
#192 = EDGE_CURVE ( 'NONE', #269, #200, #107, .T. ) ;
#193 = CYLINDRICAL_SURFACE ( 'NONE', #284, 2.999999999999997335 ) ;
#194 = APPROVAL_PERSON_ORGANIZATION ( #228, #202, #239 ) ;
#195 = COORDINATED_UNIVERSAL_TIME_OFFSET ( 1, 0, .AHEAD. ) ;
#196 = ORIENTED_EDGE ( 'NONE', *, *, #182, .F. ) ;
#197 = DATE_TIME_ROLE ( 'creation_date' ) ;
#198 = ORIENTED_EDGE ( 'NONE', *, *, #83, .F. ) ;
#199 = PERSON_AND_ORGANIZATION ( #60, #126 ) ;
#200 = VERTEX_POINT ( 'NONE', #160 ) ;
#201 = VERTEX_POINT ( 'NONE', #118 ) ;
#202 = APPROVAL ( #154, 'UNSPECIFIED' ) ;
#203 = CARTESIAN_POINT ( 'NONE',  ( 1.047444401652949315E-14, -3.673940397442091916E-16, 3.000000000000026645 ) ) ;
#204 = APPROVAL_ROLE ( '' ) ;
#205 = DIRECTION ( 'NONE',  ( 0.0000000000000000000, 1.000000000000000000, 0.0000000000000000000 ) ) ;
#206 = AXIS2_PLACEMENT_3D ( 'NONE', #152, #261, #82 ) ;
#207 = CALENDAR_DATE ( 2021, 21, 9 ) ;
#208 = DIRECTION ( 'NONE',  ( 3.491481338843133355E-15, -1.224646799147353207E-16, 1.000000000000000000 ) ) ;
#209 = ADVANCED_FACE ( 'NONE', ( #216 ), #193, .T. ) ;
#210 = DIRECTION ( 'NONE',  ( 2.555445736705828206E-15, 0.7071067811865435759, 0.7071067811865515695 ) ) ;
#211 = DIRECTION ( 'NONE',  ( -4.275831445896958607E-31, -1.000000000000000000, -1.224646799147353207E-16 ) ) ;
#212 = APPLICATION_PROTOCOL_DEFINITION ( 'international standard', 'config_control_design', 1994, #244 ) ;
#213 = CC_DESIGN_PERSON_AND_ORGANIZATION_ASSIGNMENT ( #199, #113, ( #273 ) ) ;
#214 = VECTOR ( 'NONE', #210, 1000.000000000000000 ) ;
#215 = AXIS2_PLACEMENT_3D ( 'NONE', #166, #278, #51 ) ;
#216 = FACE_OUTER_BOUND ( 'NONE', #50, .T. ) ;
#217 = CARTESIAN_POINT ( 'NONE',  ( 1.047444401652949473E-14, 2.999999999999993339, 3.000000000000027089 ) ) ;
#218 = PERSON_AND_ORGANIZATION ( #60, #126 ) ;
#219 = AXIS2_PLACEMENT_3D ( 'NONE', #49, #124, #187 ) ;
#220 = CIRCLE ( 'NONE', #133, 2.999999999999993339 ) ;
#221 = DATE_AND_TIME ( #44, #46 ) ;
#222 = VERTEX_POINT ( 'NONE', #101 ) ;
#223 = DATE_AND_TIME ( #66, #243 ) ;
#224 = VERTEX_POINT ( 'NONE', #282 ) ;
#225 = EDGE_CURVE ( 'NONE', #67, #249, #220, .T. ) ;
#226 = CARTESIAN_POINT ( 'NONE',  ( 0.0000000000000000000, 0.0000000000000000000, 0.0000000000000000000 ) ) ;
#227 = DIRECTION ( 'NONE',  ( -3.491481338843133355E-15, 1.224646799147353207E-16, -1.000000000000000000 ) ) ;
#228 = PERSON_AND_ORGANIZATION ( #60, #126 ) ;
#229 = CARTESIAN_POINT ( 'NONE',  ( 1.990144363140586139E-13, -6.980486755139912911E-15, 57.00000000000000000 ) ) ;
#230 = CARTESIAN_POINT ( 'NONE',  ( 1.047444401652949315E-14, -3.673940397442091916E-16, 3.000000000000026645 ) ) ;
#231 = PLANE ( 'NONE',  #254 ) ;
#232 = CARTESIAN_POINT ( 'NONE',  ( 1.047444401652949315E-14, -3.673940397442091916E-16, 3.000000000000026645 ) ) ;
#233 = CONICAL_SURFACE ( 'NONE', #23, 2.999999999999993339, 0.7853981633974428389 ) ;
#234 = ADVANCED_FACE ( 'NONE', ( #17 ), #6, .T. ) ;
#235 =( NAMED_UNIT ( * ) PLANE_ANGLE_UNIT ( ) SI_UNIT ( $, .RADIAN. ) );
#236 = DIRECTION ( 'NONE',  ( 4.275831445896958607E-31, 1.000000000000000000, 1.224646799147353207E-16 ) ) ;
#237 = CARTESIAN_POINT ( 'NONE',  ( 1.969195475107526960E-13, -6.907007947191071191E-15, 56.39999999999999147 ) ) ;
#238 = DIRECTION ( 'NONE',  ( 0.0000000000000000000, 1.000000000000000000, 0.0000000000000000000 ) ) ;
#239 = APPROVAL_ROLE ( '' ) ;
#240 = APPROVAL_STATUS ( 'not_yet_approved' ) ;
#241 = EDGE_LOOP ( 'NONE', ( #137, #2, #91 ) ) ;
#242 = COORDINATED_UNIVERSAL_TIME_OFFSET ( 1, 0, .AHEAD. ) ;
#243 = LOCAL_TIME ( 9, 37, 55.00000000000000000, #242 ) ;
#244 = APPLICATION_CONTEXT ( 'configuration controlled 3d designs of mechanical parts and assemblies' ) ;
#245 = SECURITY_CLASSIFICATION ( '', '', #85 ) ;
#246 = CALENDAR_DATE ( 2021, 21, 9 ) ;
#247 = EDGE_LOOP ( 'NONE', ( #73, #159, #251, #198 ) ) ;
#248 = MANIFOLD_SOLID_BREP ( 'Corps-Déplacer/Copier1[1]', #283 ) ;
#249 = VERTEX_POINT ( 'NONE', #279 ) ;
#250 = EDGE_CURVE ( 'NONE', #174, #269, #259, .T. ) ;
#251 = ORIENTED_EDGE ( 'NONE', *, *, #287, .F. ) ;
#252 = LINE ( 'NONE', #165, #184 ) ;
#253 = PERSON_AND_ORGANIZATION ( #60, #126 ) ;
#254 = AXIS2_PLACEMENT_3D ( 'NONE', #94, #125, #211 ) ;
#255 = AXIS2_PLACEMENT_3D ( 'NONE', #262, #181, #140 ) ;
#256 = DIRECTION ( 'NONE',  ( -5.135813185032640035E-31, -1.000000000000000000, -1.445602896647342368E-16 ) ) ;
#257 =( LENGTH_UNIT ( ) NAMED_UNIT ( * ) SI_UNIT ( .MILLI., .METRE. ) );
#258 = ADVANCED_FACE ( 'NONE', ( #64 ), #139, .T. ) ;
#259 = LINE ( 'NONE', #149, #75 ) ;
#260 = CC_DESIGN_APPROVAL ( #52, ( #58 ) ) ;
#261 = DIRECTION ( 'NONE',  ( -3.491481338843133355E-15, 1.224646799147353207E-16, -1.000000000000000000 ) ) ;
#262 = CARTESIAN_POINT ( 'NONE',  ( 0.0000000000000000000, 0.0000000000000000000, 0.0000000000000000000 ) ) ;
#263 = EDGE_LOOP ( 'NONE', ( #21, #26 ) ) ;
#264 = APPROVAL ( #112, 'UNSPECIFIED' ) ;
#265 = FACE_OUTER_BOUND ( 'NONE', #263, .T. ) ;
#266 = ORIENTED_EDGE ( 'NONE', *, *, #277, .F. ) ;
#267 = EDGE_CURVE ( 'NONE', #268, #201, #88, .T. ) ;
#268 = VERTEX_POINT ( 'NONE', #102 ) ;
#269 = VERTEX_POINT ( 'NONE', #217 ) ;
#270 = DIRECTION ( 'NONE',  ( 5.135813185032640035E-31, 1.000000000000000000, 1.445602896647342368E-16 ) ) ;
#271 = PERSON_AND_ORGANIZATION ( #60, #126 ) ;
#272 = CARTESIAN_POINT ( 'NONE',  ( 1.969195475107526960E-13, -6.907007947191071191E-15, 56.39999999999999147 ) ) ;
#273 = PRODUCT_DEFINITION ( 'UNKNOWN', '', #58, #10 ) ;
#274 = PERSON_AND_ORGANIZATION ( #60, #126 ) ;
#275 = CARTESIAN_POINT ( 'NONE',  ( 1.993083515458539681E-13, -2.400000000000007905, 57.00000000000000000 ) ) ;
#276 = FACE_OUTER_BOUND ( 'NONE', #134, .T. ) ;
#277 = EDGE_CURVE ( 'NONE', #222, #200, #42, .T. ) ;
#278 = DIRECTION ( 'NONE',  ( -3.491481338843133355E-15, 1.224646799147353207E-16, -1.000000000000000000 ) ) ;
#279 = CARTESIAN_POINT ( 'NONE',  ( 1.047444401652949157E-14, -2.999999999999993783, 3.000000000000026201 ) ) ;
#280 = CARTESIAN_POINT ( 'NONE',  ( 3.673940397442043598E-16, -2.999999999999997335, -3.673940397442069236E-16 ) ) ;
#281 = UNCERTAINTY_MEASURE_WITH_UNIT (LENGTH_MEASURE( 1.000000000000000082E-05 ), #257, 'distance_accuracy_value', 'NONE');
#282 = CARTESIAN_POINT ( 'NONE',  ( 0.0000000000000000000, 0.0000000000000000000, 0.0000000000000000000 ) ) ;
#283 = CLOSED_SHELL ( 'NONE', ( #72, #209, #109, #100, #234, #7 ) ) ;
#284 = AXIS2_PLACEMENT_3D ( 'NONE', #41, #127, #236 ) ;
#285 = EDGE_LOOP ( 'NONE', ( #108, #24 ) ) ;
#286 = EDGE_LOOP ( 'NONE', ( #138, #176 ) ) ;
#287 = EDGE_CURVE ( 'NONE', #174, #222, #27, .T. ) ;
ENDSEC;
END-ISO-10303-21;
