ISO-10303-21;
HEADER;
FILE_DESCRIPTION (( 'STEP AP203' ),
    '1' );
FILE_NAME ('42784.step',
    '2021-11-01T09:16:19',
    ( '' ),
    ( '' ),
    'SwSTEP 2.0',
    'SolidWorks 2019',
    '' );
FILE_SCHEMA (( 'CONFIG_CONTROL_DESIGN' ));
ENDSEC;

DATA;
#1 = PERSON_AND_ORGANIZATION_ROLE ( 'creator' ) ;
#2 = FACE_OUTER_BOUND ( 'NONE', #20, .T. ) ;
#3 = CC_DESIGN_DATE_AND_TIME_ASSIGNMENT ( #17, #85, ( #135 ) ) ;
#4 = CARTESIAN_POINT ( 'NONE',  ( -8.571711116311299553E-31, -0.9999999999999991118, -2.455035638011300145E-16 ) ) ;
#5 = EDGE_LOOP ( 'NONE', ( #195 ) ) ;
#6 = CARTESIAN_POINT ( 'NONE',  ( 1.316288464743861212E-13, 1.499999999999988232, 37.69999999999999574 ) ) ;
#7 = ORIENTED_EDGE ( 'NONE', *, *, #181, .F. ) ;
#8 = APPROVAL_STATUS ( 'not_yet_approved' ) ;
#9 = CARTESIAN_POINT ( 'NONE',  ( 1.326762908760390423E-13, 8.998558695971030697E-33, 38.00000000000000000 ) ) ;
#10 = CIRCLE ( 'NONE', #116, 0.9999999999999997780 ) ;
#11 = CARTESIAN_POINT ( 'NONE',  ( -4.285855558155649776E-31, -7.481082693103430240E-33, -1.227517819005649826E-16 ) ) ;
#12 = CARTESIAN_POINT ( 'NONE',  ( 1.326762908760390423E-13, -4.653657836759941941E-15, 38.00000000000000000 ) ) ;
#13 = DIRECTION ( 'NONE',  ( 3.491481338843133355E-15, -1.227517819005651059E-16, 1.000000000000000000 ) ) ;
#14 = VERTEX_POINT ( 'NONE', #81 ) ;
#15 = ADVANCED_FACE ( 'NONE', ( #2 ), #113, .T. ) ;
#16 = APPROVAL_STATUS ( 'not_yet_approved' ) ;
#17 = DATE_AND_TIME ( #55, #46 ) ;
#18 = AXIS2_PLACEMENT_3D ( 'NONE', #182, #103, #80 ) ;
#19 = CC_DESIGN_APPROVAL ( #76, ( #31 ) ) ;
#20 = EDGE_LOOP ( 'NONE', ( #97 ) ) ;
#21 = APPROVAL ( #8, 'UNSPECIFIED' ) ;
#22 = PERSON_AND_ORGANIZATION_ROLE ( 'creator' ) ;
#23 = ORIENTED_EDGE ( 'NONE', *, *, #28, .F. ) ;
#24 = EDGE_LOOP ( 'NONE', ( #177 ) ) ;
#25 = LOCAL_TIME ( 10, 16, 19.00000000000000000, #221 ) ;
#26 = DIRECTION ( 'NONE',  ( 3.491481338843133355E-15, -1.227517819005651059E-16, 1.000000000000000000 ) ) ;
#27 = DIRECTION ( 'NONE',  ( 0.0000000000000000000, 1.000000000000000000, 0.0000000000000000000 ) ) ;
#28 = EDGE_CURVE ( 'NONE', #201, #201, #208, .T. ) ;
#29 = AXIS2_PLACEMENT_3D ( 'NONE', #170, #118, #27 ) ;
#30 = CARTESIAN_POINT ( 'NONE',  ( -6.413731847436034514E-31, 0.0000000000000000000, -1.836965810494968570E-16 ) ) ;
#31 = PRODUCT_DEFINITION_FORMATION_WITH_SPECIFIED_SOURCE ( 'ANY', '', #43, .NOT_KNOWN. ) ;
#32 = DIRECTION ( 'NONE',  ( -3.491481338843133355E-15, 1.224646799147353207E-16, -1.000000000000000000 ) ) ;
#33 = CARTESIAN_POINT ( 'NONE',  ( 2.094888803305879698E-14, 0.0000000000000000000, 5.999999999999999112 ) ) ;
#34 = APPROVAL_DATE_TIME ( #138, #185 ) ;
#35 = APPROVAL_PERSON_ORGANIZATION ( #124, #185, #173 ) ;
#36 = PERSON_AND_ORGANIZATION ( #72, #130 ) ;
#37 = COORDINATED_UNIVERSAL_TIME_OFFSET ( 1, 0, .AHEAD. ) ;
#38 = CARTESIAN_POINT ( 'NONE',  ( 0.0000000000000000000, 0.0000000000000000000, 0.0000000000000000000 ) ) ;
#39 = AXIS2_PLACEMENT_3D ( 'NONE', #30, #149, #171 ) ;
#40 = APPROVAL_ROLE ( '' ) ;
#41 = EDGE_LOOP ( 'NONE', ( #165 ) ) ;
#42 = EDGE_LOOP ( 'NONE', ( #197 ) ) ;
#43 = PRODUCT ( '42784', '42784', '', ( #49 ) ) ;
#44 = DIRECTION ( 'NONE',  ( 0.0000000000000000000, -1.000000000000000000, 0.0000000000000000000 ) ) ;
#45 = FACE_OUTER_BOUND ( 'NONE', #74, .T. ) ;
#46 = LOCAL_TIME ( 10, 16, 19.00000000000000000, #37 ) ;
#47 = ADVANCED_FACE ( 'NONE', ( #66 ), #61, .F. ) ;
#48 = DIRECTION ( 'NONE',  ( 0.0000000000000000000, 1.000000000000000000, 0.0000000000000000000 ) ) ;
#49 = MECHANICAL_CONTEXT ( 'NONE', #163, 'mechanical' ) ;
#50 = APPROVAL_DATE_TIME ( #192, #76 ) ;
#51 = APPROVAL_STATUS ( 'not_yet_approved' ) ;
#52 = ADVANCED_FACE ( 'NONE', ( #45, #63 ), #200, .T. ) ;
#53 = DESIGN_CONTEXT ( 'detailed design', #92, 'design' ) ;
#54 = PRODUCT_DEFINITION ( 'UNKNOWN', '', #31, #53 ) ;
#55 = CALENDAR_DATE ( 2021, 1, 11 ) ;
#56 = DIRECTION ( 'NONE',  ( 3.491481338843133355E-15, -1.224646799147353207E-16, 1.000000000000000000 ) ) ;
#57 = SHAPE_DEFINITION_REPRESENTATION ( #58, #179 ) ;
#58 = PRODUCT_DEFINITION_SHAPE ( 'NONE', 'NONE',  #54 ) ;
#59 = ORIENTED_EDGE ( 'NONE', *, *, #147, .F. ) ;
#60 = ADVANCED_FACE ( 'NONE', ( #214 ), #62, .F. ) ;
#61 = PLANE ( 'NONE',  #176 ) ;
#62 = PLANE ( 'NONE',  #88 ) ;
#63 = FACE_OUTER_BOUND ( 'NONE', #115, .T. ) ;
#64 = CC_DESIGN_PERSON_AND_ORGANIZATION_ASSIGNMENT ( #105, #1, ( #54 ) ) ;
#65 = AXIS2_PLACEMENT_3D ( 'NONE', #11, #13, #166 ) ;
#66 = FACE_OUTER_BOUND ( 'NONE', #209, .T. ) ;
#67 = FACE_OUTER_BOUND ( 'NONE', #41, .T. ) ;
#68 = COORDINATED_UNIVERSAL_TIME_OFFSET ( 1, 0, .AHEAD. ) ;
#69 = CC_DESIGN_PERSON_AND_ORGANIZATION_ASSIGNMENT ( #145, #178, ( #43 ) ) ;
#70 = CC_DESIGN_APPROVAL ( #185, ( #54 ) ) ;
#71 = PERSON_AND_ORGANIZATION ( #72, #130 ) ;
#72 = PERSON ( 'UNSPECIFIED', 'UNSPECIFIED', 'UNSPECIFIED', ('UNSPECIFIED'), ('UNSPECIFIED'), ('UNSPECIFIED') ) ;
#73 = CARTESIAN_POINT ( 'NONE',  ( 2.094888803305879698E-14, -1.000000000000000444, 5.999999999999999112 ) ) ;
#74 = EDGE_LOOP ( 'NONE', ( #212 ) ) ;
#75 = DATE_AND_TIME ( #164, #108 ) ;
#76 = APPROVAL ( #16, 'UNSPECIFIED' ) ;
#77 = CARTESIAN_POINT ( 'NONE',  ( 1.326762908760390423E-13, -4.653657836759941941E-15, 38.00000000000000000 ) ) ;
#78 = DIRECTION ( 'NONE',  ( -3.491481338843133355E-15, 1.227517819005651059E-16, -1.000000000000000000 ) ) ;
#79 = CARTESIAN_POINT ( 'NONE',  ( 3.066876071900713895E-14, -3.417264983699220063E-16, 8.783882181414986334 ) ) ;
#80 = DIRECTION ( 'NONE',  ( 4.275831445896958607E-31, 1.000000000000000000, 1.224646799147353207E-16 ) ) ;
#81 = CARTESIAN_POINT ( 'NONE',  ( 3.066876071900713895E-14, 1.499999999999990452, 8.783882181414986334 ) ) ;
#82 = CALENDAR_DATE ( 2021, 1, 11 ) ;
#83 = CALENDAR_DATE ( 2021, 1, 11 ) ;
#84 = CLOSED_SHELL ( 'NONE', ( #15, #52, #156 ) ) ;
#85 = DATE_TIME_ROLE ( 'classification_date' ) ;
#86 = AXIS2_PLACEMENT_3D ( 'NONE', #38, #207, #205 ) ;
#87 = ORIENTED_EDGE ( 'NONE', *, *, #114, .F. ) ;
#88 = AXIS2_PLACEMENT_3D ( 'NONE', #217, #187, #137 ) ;
#89 = CC_DESIGN_SECURITY_CLASSIFICATION ( #135, ( #31 ) ) ;
#90 = SECURITY_CLASSIFICATION_LEVEL ( 'unclassified' ) ;
#91 = ORIENTED_EDGE ( 'NONE', *, *, #114, .T. ) ;
#92 = APPLICATION_CONTEXT ( 'configuration controlled 3d designs of mechanical parts and assemblies' ) ;
#93 = APPLICATION_PROTOCOL_DEFINITION ( 'international standard', 'config_control_design', 1994, #163 ) ;
#94 = DIRECTION ( 'NONE',  ( -4.275831445896958607E-31, -1.000000000000000000, -1.224646799147353207E-16 ) ) ;
#95 = COORDINATED_UNIVERSAL_TIME_OFFSET ( 1, 0, .AHEAD. ) ;
#96 = ADVANCED_FACE ( 'NONE', ( #169, #131 ), #129, .T. ) ;
#97 = ORIENTED_EDGE ( 'NONE', *, *, #28, .T. ) ;
#98 = DIRECTION ( 'NONE',  ( 4.275831445896958607E-31, 1.000000000000000000, 1.224646799147353207E-16 ) ) ;
#99 = FACE_OUTER_BOUND ( 'NONE', #5, .T. ) ;
#100 = CIRCLE ( 'NONE', #29, 1.499999999999992895 ) ;
#101 = CARTESIAN_POINT ( 'NONE',  ( 2.094888803305879698E-14, -7.365106914033905366E-16, 5.999999999999999112 ) ) ;
#102 = CARTESIAN_POINT ( 'NONE',  ( 1.326762908760390423E-13, 1.199999999999989297, 38.00000000000000000 ) ) ;
#103 = DIRECTION ( 'NONE',  ( -3.491481338843133355E-15, 1.224646799147353207E-16, -1.000000000000000000 ) ) ;
#104 = CALENDAR_DATE ( 2021, 1, 11 ) ;
#105 = PERSON_AND_ORGANIZATION ( #72, #130 ) ;
#106 = PERSON_AND_ORGANIZATION ( #72, #130 ) ;
#107 = AXIS2_PLACEMENT_3D ( 'NONE', #151, #199, #219 ) ;
#108 = LOCAL_TIME ( 10, 16, 19.00000000000000000, #95 ) ;
#109 = APPROVAL_ROLE ( '' ) ;
#110 = EDGE_LOOP ( 'NONE', ( #7 ) ) ;
#111 = AXIS2_PLACEMENT_3D ( 'NONE', #101, #117, #184 ) ;
#112 = CC_DESIGN_PERSON_AND_ORGANIZATION_ASSIGNMENT ( #190, #22, ( #31 ) ) ;
#113 = PLANE ( 'NONE',  #188 ) ;
#114 = EDGE_CURVE ( 'NONE', #152, #152, #213, .T. ) ;
#115 = EDGE_LOOP ( 'NONE', ( #23 ) ) ;
#116 = AXIS2_PLACEMENT_3D ( 'NONE', #216, #186, #44 ) ;
#117 = DIRECTION ( 'NONE',  ( 3.491481338843133355E-15, -1.227517819005651059E-16, 1.000000000000000000 ) ) ;
#118 = DIRECTION ( 'NONE',  ( -3.491481338843133355E-15, 1.224646799147353207E-16, -1.000000000000000000 ) ) ;
#119 = CYLINDRICAL_SURFACE ( 'NONE', #18, 1.499999999999990896 ) ;
#120 = AXIS2_PLACEMENT_3D ( 'NONE', #33, #26, #150 ) ;
#121 =( GEOMETRIC_REPRESENTATION_CONTEXT ( 3 ) GLOBAL_UNCERTAINTY_ASSIGNED_CONTEXT ( ( #167 ) ) GLOBAL_UNIT_ASSIGNED_CONTEXT ( ( #155, #158, #154 ) ) REPRESENTATION_CONTEXT ( 'NONE', 'WORKASPACE' ) );
#122 = CARTESIAN_POINT ( 'NONE',  ( 2.094888803305879698E-14, -1.000000000000000444, 5.999999999999999112 ) ) ;
#123 = FACE_OUTER_BOUND ( 'NONE', #24, .T. ) ;
#124 = PERSON_AND_ORGANIZATION ( #72, #130 ) ;
#125 = AXIS2_PLACEMENT_3D ( 'NONE', #79, #78, #183 ) ;
#126 = DATE_TIME_ROLE ( 'creation_date' ) ;
#127 = DATE_AND_TIME ( #83, #218 ) ;
#128 = VERTEX_POINT ( 'NONE', #73 ) ;
#129 = CONICAL_SURFACE ( 'NONE', #146, 1.199999999999993738, 0.7853981633974439491 ) ;
#130 = ORGANIZATION ( 'UNSPECIFIED', 'UNSPECIFIED', '' ) ;
#131 = FACE_BOUND ( 'NONE', #180, .T. ) ;
#132 = CC_DESIGN_PERSON_AND_ORGANIZATION_ASSIGNMENT ( #36, #143, ( #135 ) ) ;
#133 = PLANE ( 'NONE',  #107 ) ;
#134 = DIRECTION ( 'NONE',  ( 0.0000000000000000000, 1.000000000000000000, 0.0000000000000000000 ) ) ;
#135 = SECURITY_CLASSIFICATION ( '', '', #90 ) ;
#136 = DIRECTION ( 'NONE',  ( -3.491481338843133355E-15, 1.224646799147353207E-16, -1.000000000000000000 ) ) ;
#137 = DIRECTION ( 'NONE',  ( -4.275831445896958607E-31, -1.000000000000000000, -1.224646799147353207E-16 ) ) ;
#138 = DATE_AND_TIME ( #104, #189 ) ;
#139 = MANIFOLD_SOLID_BREP ( 'Corps-Déplacer/Copier1[2]', #84 ) ;
#140 = MANIFOLD_SOLID_BREP ( 'Corps-Déplacer/Copier1[1]', #206 ) ;
#141 = CC_DESIGN_PERSON_AND_ORGANIZATION_ASSIGNMENT ( #71, #142, ( #31 ) ) ;
#142 = PERSON_AND_ORGANIZATION_ROLE ( 'design_supplier' ) ;
#143 = PERSON_AND_ORGANIZATION_ROLE ( 'classification_officer' ) ;
#144 = CARTESIAN_POINT ( 'NONE',  ( 2.094888803305880013E-14, 1.124819836996384037E-32, 6.000000000000000000 ) ) ;
#145 = PERSON_AND_ORGANIZATION ( #72, #130 ) ;
#146 = AXIS2_PLACEMENT_3D ( 'NONE', #12, #136, #134 ) ;
#147 = EDGE_CURVE ( 'NONE', #14, #14, #168, .T. ) ;
#148 = ORIENTED_EDGE ( 'NONE', *, *, #181, .T. ) ;
#149 = DIRECTION ( 'NONE',  ( 3.491481338843133355E-15, -1.227517819005651059E-16, 1.000000000000000000 ) ) ;
#150 = DIRECTION ( 'NONE',  ( -4.348338603810381847E-31, -1.000000000000000000, -1.227517819005651059E-16 ) ) ;
#151 = CARTESIAN_POINT ( 'NONE',  ( -1.924129419174264339E-30, 6.748937501461144163E-32, -5.510925685805913103E-16 ) ) ;
#152 = VERTEX_POINT ( 'NONE', #102 ) ;
#153 = VERTEX_POINT ( 'NONE', #4 ) ;
#154 =( NAMED_UNIT ( * ) SI_UNIT ( $, .STERADIAN. ) SOLID_ANGLE_UNIT ( ) );
#155 =( LENGTH_UNIT ( ) NAMED_UNIT ( * ) SI_UNIT ( .MILLI., .METRE. ) );
#156 = ADVANCED_FACE ( 'NONE', ( #67 ), #133, .F. ) ;
#157 = EDGE_CURVE ( 'NONE', #153, #153, #222, .T. ) ;
#158 =( NAMED_UNIT ( * ) PLANE_ANGLE_UNIT ( ) SI_UNIT ( $, .RADIAN. ) );
#159 = APPROVAL_PERSON_ORGANIZATION ( #106, #76, #109 ) ;
#160 = EDGE_LOOP ( 'NONE', ( #148 ) ) ;
#161 = EDGE_LOOP ( 'NONE', ( #59 ) ) ;
#162 = VERTEX_POINT ( 'NONE', #6 ) ;
#163 = APPLICATION_CONTEXT ( 'configuration controlled 3d designs of mechanical parts and assemblies' ) ;
#164 = CALENDAR_DATE ( 2021, 1, 11 ) ;
#165 = ORIENTED_EDGE ( 'NONE', *, *, #157, .F. ) ;
#166 = DIRECTION ( 'NONE',  ( -4.285855558155653280E-31, -1.000000000000000000, -1.227517819005651305E-16 ) ) ;
#167 = UNCERTAINTY_MEASURE_WITH_UNIT (LENGTH_MEASURE( 1.000000000000000082E-05 ), #155, 'distance_accuracy_value', 'NONE');
#168 = CIRCLE ( 'NONE', #125, 1.499999999999990896 ) ;
#169 = FACE_OUTER_BOUND ( 'NONE', #110, .T. ) ;
#170 = CARTESIAN_POINT ( 'NONE',  ( 1.316288464743861212E-13, -4.616918432785521081E-15, 37.69999999999999574 ) ) ;
#171 = DIRECTION ( 'NONE',  ( -4.285855558155652404E-31, -1.000000000000000000, -1.227517819005650812E-16 ) ) ;
#172 = APPLICATION_PROTOCOL_DEFINITION ( 'international standard', 'config_control_design', 1994, #92 ) ;
#173 = APPROVAL_ROLE ( '' ) ;
#174 = EDGE_CURVE ( 'NONE', #128, #128, #10, .T. ) ;
#175 = COORDINATED_UNIVERSAL_TIME_OFFSET ( 1, 0, .AHEAD. ) ;
#176 = AXIS2_PLACEMENT_3D ( 'NONE', #9, #32, #98 ) ;
#177 = ORIENTED_EDGE ( 'NONE', *, *, #174, .T. ) ;
#178 = PERSON_AND_ORGANIZATION_ROLE ( 'design_owner' ) ;
#179 = ADVANCED_BREP_SHAPE_REPRESENTATION ( '42784', ( #140, #139, #86 ), #121 ) ;
#180 = EDGE_LOOP ( 'NONE', ( #91 ) ) ;
#181 = EDGE_CURVE ( 'NONE', #162, #162, #100, .T. ) ;
#182 = CARTESIAN_POINT ( 'NONE',  ( 0.0000000000000000000, 0.0000000000000000000, 0.0000000000000000000 ) ) ;
#183 = DIRECTION ( 'NONE',  ( 0.0000000000000000000, 1.000000000000000000, 0.0000000000000000000 ) ) ;
#184 = DIRECTION ( 'NONE',  ( 0.0000000000000000000, -1.000000000000000000, 0.0000000000000000000 ) ) ;
#185 = APPROVAL ( #51, 'UNSPECIFIED' ) ;
#186 = DIRECTION ( 'NONE',  ( 3.491481338843133355E-15, -1.227517819005651059E-16, 1.000000000000000000 ) ) ;
#187 = DIRECTION ( 'NONE',  ( 3.491481338843133355E-15, -1.224646799147353207E-16, 1.000000000000000000 ) ) ;
#188 = AXIS2_PLACEMENT_3D ( 'NONE', #144, #56, #94 ) ;
#189 = LOCAL_TIME ( 10, 16, 19.00000000000000000, #68 ) ;
#190 = PERSON_AND_ORGANIZATION ( #72, #130 ) ;
#191 = PRODUCT_RELATED_PRODUCT_CATEGORY ( 'detail', '', ( #43 ) ) ;
#192 = DATE_AND_TIME ( #82, #25 ) ;
#193 = AXIS2_PLACEMENT_3D ( 'NONE', #77, #202, #48 ) ;
#194 = PERSON_AND_ORGANIZATION ( #72, #130 ) ;
#195 = ORIENTED_EDGE ( 'NONE', *, *, #147, .T. ) ;
#196 = CC_DESIGN_DATE_AND_TIME_ASSIGNMENT ( #127, #126, ( #54 ) ) ;
#197 = ORIENTED_EDGE ( 'NONE', *, *, #174, .F. ) ;
#198 = APPROVAL_PERSON_ORGANIZATION ( #194, #21, #40 ) ;
#199 = DIRECTION ( 'NONE',  ( 3.491481338843133355E-15, -1.224646799147353207E-16, 1.000000000000000000 ) ) ;
#200 = CYLINDRICAL_SURFACE ( 'NONE', #39, 0.9999999999999995559 ) ;
#201 = VERTEX_POINT ( 'NONE', #122 ) ;
#202 = DIRECTION ( 'NONE',  ( -3.491481338843133355E-15, 1.224646799147353207E-16, -1.000000000000000000 ) ) ;
#203 = FACE_OUTER_BOUND ( 'NONE', #160, .T. ) ;
#204 = ADVANCED_FACE ( 'NONE', ( #123, #99 ), #211, .F. ) ;
#205 = DIRECTION ( 'NONE',  ( 1.000000000000000000, 0.0000000000000000000, 0.0000000000000000000 ) ) ;
#206 = CLOSED_SHELL ( 'NONE', ( #220, #96, #47, #204, #60 ) ) ;
#207 = DIRECTION ( 'NONE',  ( 0.0000000000000000000, 0.0000000000000000000, 1.000000000000000000 ) ) ;
#208 = CIRCLE ( 'NONE', #111, 0.9999999999999997780 ) ;
#209 = EDGE_LOOP ( 'NONE', ( #87 ) ) ;
#210 = APPROVAL_DATE_TIME ( #75, #21 ) ;
#211 = TOROIDAL_SURFACE ( 'NONE', #120, 9.000000000000000000, 8.000000000000000000 ) ;
#212 = ORIENTED_EDGE ( 'NONE', *, *, #157, .T. ) ;
#213 = CIRCLE ( 'NONE', #193, 1.199999999999993738 ) ;
#214 = FACE_OUTER_BOUND ( 'NONE', #42, .T. ) ;
#215 = FACE_OUTER_BOUND ( 'NONE', #161, .T. ) ;
#216 = CARTESIAN_POINT ( 'NONE',  ( 2.094888803305879698E-14, -7.365106914033905366E-16, 5.999999999999999112 ) ) ;
#217 = CARTESIAN_POINT ( 'NONE',  ( 2.094888803305880013E-14, 1.124819836996384037E-32, 6.000000000000000000 ) ) ;
#218 = LOCAL_TIME ( 10, 16, 19.00000000000000000, #175 ) ;
#219 = DIRECTION ( 'NONE',  ( -4.275831445896958607E-31, -1.000000000000000000, -1.224646799147353207E-16 ) ) ;
#220 = ADVANCED_FACE ( 'NONE', ( #203, #215 ), #119, .T. ) ;
#221 = COORDINATED_UNIVERSAL_TIME_OFFSET ( 1, 0, .AHEAD. ) ;
#222 = CIRCLE ( 'NONE', #65, 0.9999999999999991118 ) ;
#223 = CC_DESIGN_APPROVAL ( #21, ( #135 ) ) ;
ENDSEC;
END-ISO-10303-21;
