ISO-10303-21;
HEADER;
FILE_DESCRIPTION (( 'STEP AP203' ),
    '1' );
FILE_NAME ('42735.step',
    '2021-11-01T09:16:18',
    ( '' ),
    ( '' ),
    'SwSTEP 2.0',
    'SolidWorks 2019',
    '' );
FILE_SCHEMA (( 'CONFIG_CONTROL_DESIGN' ));
ENDSEC;

DATA;
#1 = DIRECTION ( 'NONE',  ( 3.491481338843133355E-15, -1.219242935835426903E-16, 1.000000000000000000 ) ) ;
#2 = CARTESIAN_POINT ( 'NONE',  ( 3.140711692153402878E-14, -1.096752401782150662E-15, 8.995355802743729257 ) ) ;
#3 = DIRECTION ( 'NONE',  ( 3.491481338843133355E-15, -1.219242935835426903E-16, 1.000000000000000000 ) ) ;
#4 = DIRECTION ( 'NONE',  ( -3.491481338843133355E-15, 1.224646799147353207E-16, -1.000000000000000000 ) ) ;
#5 = CC_DESIGN_DATE_AND_TIME_ASSIGNMENT ( #48, #7, ( #29 ) ) ;
#6 = FACE_OUTER_BOUND ( 'NONE', #37, .T. ) ;
#7 = DATE_TIME_ROLE ( 'creation_date' ) ;
#8 = ADVANCED_FACE ( 'NONE', ( #166 ), #228, .F. ) ;
#9 = ADVANCED_BREP_SHAPE_REPRESENTATION ( '42735', ( #207, #215, #173 ), #203 ) ;
#10 = APPROVAL_ROLE ( '' ) ;
#11 = DIRECTION ( 'NONE',  ( 0.0000000000000000000, -1.000000000000000000, 0.0000000000000000000 ) ) ;
#12 = PERSON_AND_ORGANIZATION ( #210, #46 ) ;
#13 = ADVANCED_FACE ( 'NONE', ( #103, #42 ), #195, .F. ) ;
#14 = SECURITY_CLASSIFICATION_LEVEL ( 'unclassified' ) ;
#15 = COORDINATED_UNIVERSAL_TIME_OFFSET ( 1, 0, .AHEAD. ) ;
#16 = EDGE_LOOP ( 'NONE', ( #54 ) ) ;
#17 = AXIS2_PLACEMENT_3D ( 'NONE', #58, #175, #25 ) ;
#18 = AXIS2_PLACEMENT_3D ( 'NONE', #91, #126, #238 ) ;
#19 = APPROVAL_STATUS ( 'not_yet_approved' ) ;
#20 = DATE_TIME_ROLE ( 'classification_date' ) ;
#21 = ORIENTED_EDGE ( 'NONE', *, *, #98, .F. ) ;
#22 = AXIS2_PLACEMENT_3D ( 'NONE', #174, #4, #60 ) ;
#23 = FACE_OUTER_BOUND ( 'NONE', #56, .T. ) ;
#24 = PLANE ( 'NONE',  #163 ) ;
#25 = DIRECTION ( 'NONE',  ( 0.0000000000000000000, 1.000000000000000000, 0.0000000000000000000 ) ) ;
#26 = CONICAL_SURFACE ( 'NONE', #189, 1.199999999999993738, 0.7853981633974439491 ) ;
#27 = DIRECTION ( 'NONE',  ( -3.491481338843133355E-15, 1.224646799147353207E-16, -1.000000000000000000 ) ) ;
#28 =( NAMED_UNIT ( * ) PLANE_ANGLE_UNIT ( ) SI_UNIT ( $, .RADIAN. ) );
#29 = PRODUCT_DEFINITION ( 'UNKNOWN', '', #190, #182 ) ;
#30 = PERSON_AND_ORGANIZATION ( #210, #46 ) ;
#31 = VERTEX_POINT ( 'NONE', #88 ) ;
#32 = UNCERTAINTY_MEASURE_WITH_UNIT (LENGTH_MEASURE( 1.000000000000000082E-05 ), #66, 'distance_accuracy_value', 'NONE');
#33 = EDGE_LOOP ( 'NONE', ( #183 ) ) ;
#34 = ADVANCED_FACE ( 'NONE', ( #138, #23 ), #154, .T. ) ;
#35 = APPROVAL_DATE_TIME ( #72, #199 ) ;
#36 = CLOSED_SHELL ( 'NONE', ( #34, #114, #8, #202, #13, #108 ) ) ;
#37 = EDGE_LOOP ( 'NONE', ( #201 ) ) ;
#38 = PERSON_AND_ORGANIZATION ( #210, #46 ) ;
#39 = ORIENTED_EDGE ( 'NONE', *, *, #147, .F. ) ;
#40 = FACE_BOUND ( 'NONE', #118, .T. ) ;
#41 = DIRECTION ( 'NONE',  ( -4.256963957985708889E-31, -1.000000000000000000, -1.219242935835428382E-16 ) ) ;
#42 = FACE_OUTER_BOUND ( 'NONE', #243, .T. ) ;
#43 = CARTESIAN_POINT ( 'NONE',  ( 1.926473042644092473E-14, -6.727341263978957750E-16, 5.517638090205029044 ) ) ;
#44 = CIRCLE ( 'NONE', #78, 0.5000000000000011102 ) ;
#45 = CARTESIAN_POINT ( 'NONE',  ( 1.326762908760390423E-13, -4.653657836759941941E-15, 38.00000000000000000 ) ) ;
#46 = ORGANIZATION ( 'UNSPECIFIED', 'UNSPECIFIED', '' ) ;
#47 = APPROVAL_PERSON_ORGANIZATION ( #69, #49, #10 ) ;
#48 = DATE_AND_TIME ( #141, #97 ) ;
#49 = APPROVAL ( #200, 'UNSPECIFIED' ) ;
#50 = CIRCLE ( 'NONE', #90, 0.5681483474218598229 ) ;
#51 = ADVANCED_FACE ( 'NONE', ( #101, #122 ), #125, .T. ) ;
#52 = APPROVAL_STATUS ( 'not_yet_approved' ) ;
#53 = PERSON_AND_ORGANIZATION ( #210, #46 ) ;
#54 = ORIENTED_EDGE ( 'NONE', *, *, #104, .F. ) ;
#55 = AXIS2_PLACEMENT_3D ( 'NONE', #2, #82, #160 ) ;
#56 = EDGE_LOOP ( 'NONE', ( #39 ) ) ;
#57 = CC_DESIGN_PERSON_AND_ORGANIZATION_ASSIGNMENT ( #12, #233, ( #29 ) ) ;
#58 = CARTESIAN_POINT ( 'NONE',  ( 1.316288464743861212E-13, -4.616918432785521081E-15, 37.69999999999999574 ) ) ;
#59 = PRODUCT ( '42735', '42735', '', ( #222 ) ) ;
#60 = DIRECTION ( 'NONE',  ( 4.275831445896958607E-31, 1.000000000000000000, 1.224646799147353207E-16 ) ) ;
#61 = PLANE ( 'NONE',  #220 ) ;
#62 = CIRCLE ( 'NONE', #172, 1.199999999999993738 ) ;
#63 = COORDINATED_UNIVERSAL_TIME_OFFSET ( 1, 0, .AHEAD. ) ;
#64 = PERSON_AND_ORGANIZATION_ROLE ( 'design_owner' ) ;
#65 = DIRECTION ( 'NONE',  ( 3.491481338843133355E-15, -1.219242935835426903E-16, 1.000000000000000000 ) ) ;
#66 =( LENGTH_UNIT ( ) NAMED_UNIT ( * ) SI_UNIT ( .MILLI., .METRE. ) );
#67 = LOCAL_TIME ( 10, 16, 18.00000000000000000, #74 ) ;
#68 = APPROVAL ( #19, 'UNSPECIFIED' ) ;
#69 = PERSON_AND_ORGANIZATION ( #210, #46 ) ;
#70 = APPROVAL_ROLE ( '' ) ;
#71 = EDGE_CURVE ( 'NONE', #31, #31, #237, .T. ) ;
#72 = DATE_AND_TIME ( #136, #67 ) ;
#73 = ORIENTED_EDGE ( 'NONE', *, *, #71, .F. ) ;
#74 = COORDINATED_UNIVERSAL_TIME_OFFSET ( 1, 0, .AHEAD. ) ;
#75 = APPROVAL_ROLE ( '' ) ;
#76 = COORDINATED_UNIVERSAL_TIME_OFFSET ( 1, 0, .AHEAD. ) ;
#77 = ADVANCED_FACE ( 'NONE', ( #6 ), #208, .T. ) ;
#78 = AXIS2_PLACEMENT_3D ( 'NONE', #159, #65, #11 ) ;
#79 = EDGE_LOOP ( 'NONE', ( #73 ) ) ;
#80 = DIRECTION ( 'NONE',  ( 0.0000000000000000000, 1.000000000000000000, 0.0000000000000000000 ) ) ;
#81 = EDGE_CURVE ( 'NONE', #221, #221, #180, .T. ) ;
#82 = DIRECTION ( 'NONE',  ( -3.491481338843133355E-15, 1.219242935835426903E-16, -1.000000000000000000 ) ) ;
#83 = CIRCLE ( 'NONE', #143, 0.5000000000000011102 ) ;
#84 = DIRECTION ( 'NONE',  ( 4.275831445896958607E-31, 1.000000000000000000, 1.224646799147353207E-16 ) ) ;
#85 = CARTESIAN_POINT ( 'NONE',  ( 0.0000000000000000000, 0.0000000000000000000, 0.0000000000000000000 ) ) ;
#86 = DIRECTION ( 'NONE',  ( 3.491481338843133355E-15, -1.219242935835426903E-16, 1.000000000000000000 ) ) ;
#87 = FACE_OUTER_BOUND ( 'NONE', #184, .T. ) ;
#88 = CARTESIAN_POINT ( 'NONE',  ( 1.316288464743861212E-13, 1.499999999999988232, 37.69999999999999574 ) ) ;
#89 = VERTEX_POINT ( 'NONE', #146 ) ;
#90 = AXIS2_PLACEMENT_3D ( 'NONE', #43, #3, #155 ) ;
#91 = CARTESIAN_POINT ( 'NONE',  ( 4.443750267177555658E-14, -1.551780060112888296E-15, 12.72740661031270726 ) ) ;
#92 = DATE_AND_TIME ( #117, #135 ) ;
#93 = EDGE_LOOP ( 'NONE', ( #151 ) ) ;
#94 = CLOSED_SHELL ( 'NONE', ( #77, #51, #127 ) ) ;
#95 = EDGE_LOOP ( 'NONE', ( #187 ) ) ;
#96 = AXIS2_PLACEMENT_3D ( 'NONE', #157, #27, #84 ) ;
#97 = LOCAL_TIME ( 10, 16, 18.00000000000000000, #63 ) ;
#98 = EDGE_CURVE ( 'NONE', #142, #142, #50, .T. ) ;
#99 = DIRECTION ( 'NONE',  ( 3.491481338843133355E-15, -1.224646799147353207E-16, 1.000000000000000000 ) ) ;
#100 = PRODUCT_DEFINITION_SHAPE ( 'NONE', 'NONE',  #29 ) ;
#101 = FACE_OUTER_BOUND ( 'NONE', #111, .T. ) ;
#102 = DIRECTION ( 'NONE',  ( 3.491481338843133355E-15, -1.219242935835426903E-16, 1.000000000000000000 ) ) ;
#103 = FACE_OUTER_BOUND ( 'NONE', #116, .T. ) ;
#104 = EDGE_CURVE ( 'NONE', #110, #110, #83, .T. ) ;
#105 =( NAMED_UNIT ( * ) SI_UNIT ( $, .STERADIAN. ) SOLID_ANGLE_UNIT ( ) );
#106 = VERTEX_POINT ( 'NONE', #234 ) ;
#107 = SECURITY_CLASSIFICATION ( '', '', #14 ) ;
#108 = ADVANCED_FACE ( 'NONE', ( #232 ), #61, .F. ) ;
#109 = APPLICATION_PROTOCOL_DEFINITION ( 'international standard', 'config_control_design', 1994, #229 ) ;
#110 = VERTEX_POINT ( 'NONE', #197 ) ;
#111 = EDGE_LOOP ( 'NONE', ( #206 ) ) ;
#112 = APPROVAL_DATE_TIME ( #113, #68 ) ;
#113 = DATE_AND_TIME ( #223, #177 ) ;
#114 = ADVANCED_FACE ( 'NONE', ( #213, #40 ), #26, .T. ) ;
#115 = PERSON_AND_ORGANIZATION ( #210, #46 ) ;
#116 = EDGE_LOOP ( 'NONE', ( #164 ) ) ;
#117 = CALENDAR_DATE ( 2021, 1, 11 ) ;
#118 = EDGE_LOOP ( 'NONE', ( #168 ) ) ;
#119 = DIRECTION ( 'NONE',  ( -3.491481338843133355E-15, 1.224646799147353207E-16, -1.000000000000000000 ) ) ;
#120 = EDGE_CURVE ( 'NONE', #89, #89, #62, .T. ) ;
#121 = DIRECTION ( 'NONE',  ( 0.0000000000000000000, 1.000000000000000000, 0.0000000000000000000 ) ) ;
#122 = FACE_OUTER_BOUND ( 'NONE', #93, .T. ) ;
#123 = DIRECTION ( 'NONE',  ( -4.275831445896958607E-31, -1.000000000000000000, -1.224646799147353207E-16 ) ) ;
#124 = LOCAL_TIME ( 10, 16, 18.00000000000000000, #130 ) ;
#125 = CYLINDRICAL_SURFACE ( 'NONE', #241, 0.5000000000000007772 ) ;
#126 = DIRECTION ( 'NONE',  ( 3.491481338843133355E-15, -1.219242935835426903E-16, 1.000000000000000000 ) ) ;
#127 = ADVANCED_FACE ( 'NONE', ( #196 ), #24, .F. ) ;
#128 = CC_DESIGN_APPROVAL ( #49, ( #29 ) ) ;
#129 = CARTESIAN_POINT ( 'NONE',  ( 1.926473042644092473E-14, -0.5681483474218604890, 5.517638090205029044 ) ) ;
#130 = COORDINATED_UNIVERSAL_TIME_OFFSET ( 1, 0, .AHEAD. ) ;
#131 = CC_DESIGN_PERSON_AND_ORGANIZATION_ASSIGNMENT ( #30, #64, ( #59 ) ) ;
#132 = AXIS2_PLACEMENT_3D ( 'NONE', #171, #102, #169 ) ;
#133 = ORIENTED_EDGE ( 'NONE', *, *, #81, .F. ) ;
#134 = CC_DESIGN_PERSON_AND_ORGANIZATION_ASSIGNMENT ( #53, #149, ( #190 ) ) ;
#135 = LOCAL_TIME ( 10, 16, 18.00000000000000000, #76 ) ;
#136 = CALENDAR_DATE ( 2021, 1, 11 ) ;
#137 = DIRECTION ( 'NONE',  ( 3.491481338843133355E-15, -1.224646799147353207E-16, 1.000000000000000000 ) ) ;
#138 = FACE_OUTER_BOUND ( 'NONE', #224, .T. ) ;
#139 = CARTESIAN_POINT ( 'NONE',  ( 1.745740669421566993E-14, 1.124819836996384448E-32, 5.000000000000000888 ) ) ;
#140 = DIRECTION ( 'NONE',  ( 3.491481338843133355E-15, -1.219242935835426903E-16, 1.000000000000000000 ) ) ;
#141 = CALENDAR_DATE ( 2021, 1, 11 ) ;
#142 = VERTEX_POINT ( 'NONE', #129 ) ;
#143 = AXIS2_PLACEMENT_3D ( 'NONE', #156, #1, #231 ) ;
#144 = CARTESIAN_POINT ( 'NONE',  ( -4.915329951031639330E-30, -0.5000000000000004441, -1.407806450616827244E-15 ) ) ;
#145 = CC_DESIGN_APPROVAL ( #199, ( #190 ) ) ;
#146 = CARTESIAN_POINT ( 'NONE',  ( 1.326762908760390423E-13, 1.199999999999989297, 38.00000000000000000 ) ) ;
#147 = EDGE_CURVE ( 'NONE', #235, #235, #214, .T. ) ;
#148 = PERSON_AND_ORGANIZATION ( #210, #46 ) ;
#149 = PERSON_AND_ORGANIZATION_ROLE ( 'design_supplier' ) ;
#150 = AXIS2_PLACEMENT_3D ( 'NONE', #139, #137, #191 ) ;
#151 = ORIENTED_EDGE ( 'NONE', *, *, #158, .F. ) ;
#152 = PERSON_AND_ORGANIZATION_ROLE ( 'creator' ) ;
#153 = CARTESIAN_POINT ( 'NONE',  ( -1.924129419174264339E-30, 6.748937501461144163E-32, -5.510925685805913103E-16 ) ) ;
#154 = CYLINDRICAL_SURFACE ( 'NONE', #22, 1.499999999999990896 ) ;
#155 = DIRECTION ( 'NONE',  ( 0.0000000000000000000, -1.000000000000000000, 0.0000000000000000000 ) ) ;
#156 = CARTESIAN_POINT ( 'NONE',  ( 1.745740669421566993E-14, -6.096214679177135500E-16, 5.000000000000000888 ) ) ;
#157 = CARTESIAN_POINT ( 'NONE',  ( 1.326762908760390423E-13, 8.998558695971030697E-33, 38.00000000000000000 ) ) ;
#158 = EDGE_CURVE ( 'NONE', #106, #106, #44, .T. ) ;
#159 = CARTESIAN_POINT ( 'NONE',  ( 1.745740669421566993E-14, -6.096214679177135500E-16, 5.000000000000000888 ) ) ;
#160 = DIRECTION ( 'NONE',  ( 0.0000000000000000000, -1.000000000000000000, 0.0000000000000000000 ) ) ;
#161 = DATE_AND_TIME ( #179, #124 ) ;
#162 = APPLICATION_CONTEXT ( 'configuration controlled 3d designs of mechanical parts and assemblies' ) ;
#163 = AXIS2_PLACEMENT_3D ( 'NONE', #153, #99, #170 ) ;
#164 = ORIENTED_EDGE ( 'NONE', *, *, #104, .T. ) ;
#165 = SHAPE_DEFINITION_REPRESENTATION ( #100, #9 ) ;
#166 = FACE_OUTER_BOUND ( 'NONE', #33, .T. ) ;
#167 = ORIENTED_EDGE ( 'NONE', *, *, #147, .T. ) ;
#168 = ORIENTED_EDGE ( 'NONE', *, *, #120, .T. ) ;
#169 = DIRECTION ( 'NONE',  ( -4.374987488666863336E-31, -1.000000000000000000, -1.219242935835426903E-16 ) ) ;
#170 = DIRECTION ( 'NONE',  ( -4.275831445896958607E-31, -1.000000000000000000, -1.224646799147353207E-16 ) ) ;
#171 = CARTESIAN_POINT ( 'NONE',  ( 1.745740669421566993E-14, -4.336808689942017736E-16, 5.000000000000000888 ) ) ;
#172 = AXIS2_PLACEMENT_3D ( 'NONE', #45, #188, #80 ) ;
#173 = AXIS2_PLACEMENT_3D ( 'NONE', #181, #198, #178 ) ;
#174 = CARTESIAN_POINT ( 'NONE',  ( 0.0000000000000000000, 0.0000000000000000000, 0.0000000000000000000 ) ) ;
#175 = DIRECTION ( 'NONE',  ( -3.491481338843133355E-15, 1.224646799147353207E-16, -1.000000000000000000 ) ) ;
#176 = APPROVAL_DATE_TIME ( #161, #49 ) ;
#177 = LOCAL_TIME ( 10, 16, 18.00000000000000000, #15 ) ;
#178 = DIRECTION ( 'NONE',  ( 1.000000000000000000, 0.0000000000000000000, 0.0000000000000000000 ) ) ;
#179 = CALENDAR_DATE ( 2021, 1, 11 ) ;
#180 = CIRCLE ( 'NONE', #185, 0.5000000000000004441 ) ;
#181 = CARTESIAN_POINT ( 'NONE',  ( 0.0000000000000000000, 0.0000000000000000000, 0.0000000000000000000 ) ) ;
#182 = DESIGN_CONTEXT ( 'detailed design', #162, 'design' ) ;
#183 = ORIENTED_EDGE ( 'NONE', *, *, #120, .F. ) ;
#184 = EDGE_LOOP ( 'NONE', ( #167 ) ) ;
#185 = AXIS2_PLACEMENT_3D ( 'NONE', #230, #140, #41 ) ;
#186 = CONICAL_SURFACE ( 'NONE', #18, 2.499999999999992006, 0.2617993877991428575 ) ;
#187 = ORIENTED_EDGE ( 'NONE', *, *, #98, .T. ) ;
#188 = DIRECTION ( 'NONE',  ( -3.491481338843133355E-15, 1.224646799147353207E-16, -1.000000000000000000 ) ) ;
#189 = AXIS2_PLACEMENT_3D ( 'NONE', #194, #119, #121 ) ;
#190 = PRODUCT_DEFINITION_FORMATION_WITH_SPECIFIED_SOURCE ( 'ANY', '', #59, .NOT_KNOWN. ) ;
#191 = DIRECTION ( 'NONE',  ( -4.275831445896958607E-31, -1.000000000000000000, -1.224646799147353207E-16 ) ) ;
#192 = CC_DESIGN_PERSON_AND_ORGANIZATION_ASSIGNMENT ( #225, #205, ( #107 ) ) ;
#193 = DIRECTION ( 'NONE',  ( -4.256963957985708013E-31, -1.000000000000000000, -1.219242935835426903E-16 ) ) ;
#194 = CARTESIAN_POINT ( 'NONE',  ( 1.326762908760390423E-13, -4.653657836759941941E-15, 38.00000000000000000 ) ) ;
#195 = TOROIDAL_SURFACE ( 'NONE', #132, 2.499999999999997335, 1.999999999999997780 ) ;
#196 = FACE_OUTER_BOUND ( 'NONE', #240, .T. ) ;
#197 = CARTESIAN_POINT ( 'NONE',  ( 1.745740669421566993E-14, -0.5000000000000017764, 5.000000000000000888 ) ) ;
#198 = DIRECTION ( 'NONE',  ( 0.0000000000000000000, 0.0000000000000000000, 1.000000000000000000 ) ) ;
#199 = APPROVAL ( #52, 'UNSPECIFIED' ) ;
#200 = APPROVAL_STATUS ( 'not_yet_approved' ) ;
#201 = ORIENTED_EDGE ( 'NONE', *, *, #158, .T. ) ;
#202 = ADVANCED_FACE ( 'NONE', ( #236, #87 ), #186, .T. ) ;
#203 =( GEOMETRIC_REPRESENTATION_CONTEXT ( 3 ) GLOBAL_UNCERTAINTY_ASSIGNED_CONTEXT ( ( #32 ) ) GLOBAL_UNIT_ASSIGNED_CONTEXT ( ( #66, #28, #105 ) ) REPRESENTATION_CONTEXT ( 'NONE', 'WORKASPACE' ) );
#204 = CC_DESIGN_DATE_AND_TIME_ASSIGNMENT ( #92, #20, ( #107 ) ) ;
#205 = PERSON_AND_ORGANIZATION_ROLE ( 'classification_officer' ) ;
#206 = ORIENTED_EDGE ( 'NONE', *, *, #81, .T. ) ;
#207 = MANIFOLD_SOLID_BREP ( 'Corps-Déplacer/Copier1[1]', #36 ) ;
#208 = PLANE ( 'NONE',  #150 ) ;
#209 = APPROVAL_PERSON_ORGANIZATION ( #38, #199, #70 ) ;
#210 = PERSON ( 'UNSPECIFIED', 'UNSPECIFIED', 'UNSPECIFIED', ('UNSPECIFIED'), ('UNSPECIFIED'), ('UNSPECIFIED') ) ;
#211 = DIRECTION ( 'NONE',  ( 3.491481338843133355E-15, -1.224646799147353207E-16, 1.000000000000000000 ) ) ;
#212 = CARTESIAN_POINT ( 'NONE',  ( 1.745740669421566993E-14, 1.124819836996384448E-32, 5.000000000000000888 ) ) ;
#213 = FACE_OUTER_BOUND ( 'NONE', #79, .T. ) ;
#214 = CIRCLE ( 'NONE', #55, 1.499999999999990896 ) ;
#215 = MANIFOLD_SOLID_BREP ( 'Corps-Déplacer/Copier1[2]', #94 ) ;
#216 = CC_DESIGN_SECURITY_CLASSIFICATION ( #107, ( #190 ) ) ;
#217 = PRODUCT_RELATED_PRODUCT_CATEGORY ( 'detail', '', ( #59 ) ) ;
#218 = APPLICATION_PROTOCOL_DEFINITION ( 'international standard', 'config_control_design', 1994, #162 ) ;
#219 = CARTESIAN_POINT ( 'NONE',  ( 3.140711692153402878E-14, -1.499999999999992006, 8.995355802743729257 ) ) ;
#220 = AXIS2_PLACEMENT_3D ( 'NONE', #212, #211, #123 ) ;
#221 = VERTEX_POINT ( 'NONE', #144 ) ;
#222 = MECHANICAL_CONTEXT ( 'NONE', #229, 'mechanical' ) ;
#223 = CALENDAR_DATE ( 2021, 1, 11 ) ;
#224 = EDGE_LOOP ( 'NONE', ( #226 ) ) ;
#225 = PERSON_AND_ORGANIZATION ( #210, #46 ) ;
#226 = ORIENTED_EDGE ( 'NONE', *, *, #71, .T. ) ;
#227 = CC_DESIGN_PERSON_AND_ORGANIZATION_ASSIGNMENT ( #115, #152, ( #190 ) ) ;
#228 = PLANE ( 'NONE',  #96 ) ;
#229 = APPLICATION_CONTEXT ( 'configuration controlled 3d designs of mechanical parts and assemblies' ) ;
#230 = CARTESIAN_POINT ( 'NONE',  ( -4.702481753132353666E-30, 1.642130403108882688E-31, -1.346844303825055801E-15 ) ) ;
#231 = DIRECTION ( 'NONE',  ( 0.0000000000000000000, -1.000000000000000000, 0.0000000000000000000 ) ) ;
#232 = FACE_OUTER_BOUND ( 'NONE', #16, .T. ) ;
#233 = PERSON_AND_ORGANIZATION_ROLE ( 'creator' ) ;
#234 = CARTESIAN_POINT ( 'NONE',  ( 1.745740669421566993E-14, -0.5000000000000017764, 5.000000000000000888 ) ) ;
#235 = VERTEX_POINT ( 'NONE', #219 ) ;
#236 = FACE_BOUND ( 'NONE', #95, .T. ) ;
#237 = CIRCLE ( 'NONE', #17, 1.499999999999992895 ) ;
#238 = DIRECTION ( 'NONE',  ( 0.0000000000000000000, -1.000000000000000000, 0.0000000000000000000 ) ) ;
#239 = CC_DESIGN_APPROVAL ( #68, ( #107 ) ) ;
#240 = EDGE_LOOP ( 'NONE', ( #133 ) ) ;
#241 = AXIS2_PLACEMENT_3D ( 'NONE', #85, #86, #193 ) ;
#242 = APPROVAL_PERSON_ORGANIZATION ( #148, #68, #75 ) ;
#243 = EDGE_LOOP ( 'NONE', ( #21 ) ) ;
ENDSEC;
END-ISO-10303-21;
