ISO-10303-21;
HEADER;
FILE_DESCRIPTION (( 'STEP AP203' ),
    '1' );
FILE_NAME ('42653.step',
    '2021-09-03T07:22:27',
    ( '' ),
    ( '' ),
    'SwSTEP 2.0',
    'SolidWorks 2019',
    '' );
FILE_SCHEMA (( 'CONFIG_CONTROL_DESIGN' ));
ENDSEC;

DATA;
#1 = CARTESIAN_POINT ( 'NONE',  ( 9.426999614876460059E-14, 3.186989538156440027E-32, 27.00000000000000000 ) ) ;
#2 = DIRECTION ( 'NONE',  ( -3.491481338843133355E-15, 1.224646799147353207E-16, -1.000000000000000000 ) ) ;
#3 = PERSON_AND_ORGANIZATION_ROLE ( 'design_supplier' ) ;
#4 = VERTEX_POINT ( 'NONE', #137 ) ;
#5 = DIRECTION ( 'NONE',  ( -4.275831445896958607E-31, -1.000000000000000000, -1.224646799147353207E-16 ) ) ;
#6 = EDGE_CURVE ( 'NONE', #4, #60, #295, .T. ) ;
#7 = ORIENTED_EDGE ( 'NONE', *, *, #223, .T. ) ;
#8 = CARTESIAN_POINT ( 'NONE',  ( 9.426999614876460059E-14, 4.249999999999993783, 27.00000000000000000 ) ) ;
#9 = LOCAL_TIME ( 9, 22, 27.00000000000000000, #272 ) ;
#10 = DIRECTION ( 'NONE',  ( -3.491481338843133355E-15, 1.224646799147353207E-16, -1.000000000000000000 ) ) ;
#11 = FACE_OUTER_BOUND ( 'NONE', #119, .T. ) ;
#12 = APPROVAL_STATUS ( 'not_yet_approved' ) ;
#13 = ADVANCED_FACE ( 'NONE', ( #208 ), #130, .T. ) ;
#14 = EDGE_LOOP ( 'NONE', ( #139, #7 ) ) ;
#15 = VECTOR ( 'NONE', #94, 999.9999999999998863 ) ;
#16 = ORIENTED_EDGE ( 'NONE', *, *, #6, .F. ) ;
#17 = CARTESIAN_POINT ( 'NONE',  ( 1.817228364506207364E-30, 4.250000000000000000, 5.204748896376250699E-16 ) ) ;
#18 = CALENDAR_DATE ( 2021, 3, 9 ) ;
#19 = AXIS2_PLACEMENT_3D ( 'NONE', #63, #328, #275 ) ;
#20 = EDGE_CURVE ( 'NONE', #102, #287, #236, .T. ) ;
#21 = CARTESIAN_POINT ( 'NONE',  ( 0.0000000000000000000, 0.0000000000000000000, 0.0000000000000000000 ) ) ;
#22 = DIRECTION ( 'NONE',  ( -3.491481338843133355E-15, 1.224646799147353207E-16, -1.000000000000000000 ) ) ;
#23 = PERSON_AND_ORGANIZATION ( #26, #53 ) ;
#24 = ORIENTED_EDGE ( 'NONE', *, *, #228, .T. ) ;
#25 = LOCAL_TIME ( 9, 22, 27.00000000000000000, #327 ) ;
#26 = PERSON ( 'UNSPECIFIED', 'UNSPECIFIED', 'UNSPECIFIED', ('UNSPECIFIED'), ('UNSPECIFIED'), ('UNSPECIFIED') ) ;
#27 = ADVANCED_FACE ( 'NONE', ( #197 ), #302, .T. ) ;
#28 =( LENGTH_UNIT ( ) NAMED_UNIT ( * ) SI_UNIT ( .MILLI., .METRE. ) );
#29 = ORIENTED_EDGE ( 'NONE', *, *, #303, .F. ) ;
#30 = DIRECTION ( 'NONE',  ( 0.0000000000000000000, 1.000000000000000000, 0.0000000000000000000 ) ) ;
#31 = VERTEX_POINT ( 'NONE', #253 ) ;
#32 = AXIS2_PLACEMENT_3D ( 'NONE', #77, #84, #269 ) ;
#33 = ADVANCED_FACE ( 'NONE', ( #47 ), #112, .T. ) ;
#34 = ORIENTED_EDGE ( 'NONE', *, *, #99, .T. ) ;
#35 = CARTESIAN_POINT ( 'NONE',  ( 2.730338406975330915E-13, 4.249999999999993783, 78.20000000000000284 ) ) ;
#36 = LINE ( 'NONE', #17, #309 ) ;
#37 = CONICAL_SURFACE ( 'NONE', #225, 4.249999999999993783, 1.029744258676649649 ) ;
#38 = APPROVAL_DATE_TIME ( #273, #313 ) ;
#39 = PERSON_AND_ORGANIZATION ( #26, #53 ) ;
#40 = DIRECTION ( 'NONE',  ( -3.491481338843133355E-15, 1.224646799147353207E-16, -1.000000000000000000 ) ) ;
#41 = PRODUCT_DEFINITION_SHAPE ( 'NONE', 'NONE',  #182 ) ;
#42 = EDGE_CURVE ( 'NONE', #259, #79, #294, .T. ) ;
#43 = CARTESIAN_POINT ( 'NONE',  ( 5.204748896376233936E-16, -4.250000000000000000, -5.204748896376269435E-16 ) ) ;
#44 = PERSON_AND_ORGANIZATION_ROLE ( 'design_owner' ) ;
#45 = CARTESIAN_POINT ( 'NONE',  ( 8.916047963967037691E-15, -3.127328643759674220E-16, 2.553657630867154804 ) ) ;
#46 = PRODUCT_DEFINITION_FORMATION_WITH_SPECIFIED_SOURCE ( 'ANY', '', #281, .NOT_KNOWN. ) ;
#47 = FACE_OUTER_BOUND ( 'NONE', #336, .T. ) ;
#48 = DIRECTION ( 'NONE',  ( 0.0000000000000000000, 1.000000000000000000, 0.0000000000000000000 ) ) ;
#49 = EDGE_LOOP ( 'NONE', ( #333, #286 ) ) ;
#50 = CLOSED_SHELL ( 'NONE', ( #305, #120, #292, #205, #331 ) ) ;
#51 = EDGE_CURVE ( 'NONE', #233, #4, #262, .T. ) ;
#52 = ORIENTED_EDGE ( 'NONE', *, *, #87, .F. ) ;
#53 = ORGANIZATION ( 'UNSPECIFIED', 'UNSPECIFIED', '' ) ;
#54 = SECURITY_CLASSIFICATION_LEVEL ( 'unclassified' ) ;
#55 = CARTESIAN_POINT ( 'NONE',  ( 8.916047963967036113E-15, -4.249999999999993783, 2.553657630867154360 ) ) ;
#56 = COORDINATED_UNIVERSAL_TIME_OFFSET ( 1, 0, .AHEAD. ) ;
#57 = APPROVAL_PERSON_ORGANIZATION ( #217, #186, #298 ) ;
#58 = APPROVAL_ROLE ( '' ) ;
#59 = ORIENTED_EDGE ( 'NONE', *, *, #97, .F. ) ;
#60 = VERTEX_POINT ( 'NONE', #35 ) ;
#61 = AXIS2_PLACEMENT_3D ( 'NONE', #105, #229, #203 ) ;
#62 = DIRECTION ( 'NONE',  ( 4.275831445896958607E-31, 1.000000000000000000, 1.224646799147353454E-16 ) ) ;
#63 = CARTESIAN_POINT ( 'NONE',  ( 2.730338406975330915E-13, -9.576737969332302470E-15, 78.20000000000000284 ) ) ;
#64 = CC_DESIGN_DATE_AND_TIME_ASSIGNMENT ( #171, #144, ( #285 ) ) ;
#65 = DIRECTION ( 'NONE',  ( -3.491481338843133355E-15, 1.224646799147353207E-16, -1.000000000000000000 ) ) ;
#66 = DIRECTION ( 'NONE',  ( 4.275831445896958607E-31, 1.000000000000000000, 1.224646799147353207E-16 ) ) ;
#67 = FACE_OUTER_BOUND ( 'NONE', #143, .T. ) ;
#68 = CIRCLE ( 'NONE', #74, 4.249999999999996447 ) ;
#69 = LOCAL_TIME ( 9, 22, 27.00000000000000000, #56 ) ;
#70 = DIRECTION ( 'NONE',  ( -3.491481338843133355E-15, 1.224646799147353207E-16, -1.000000000000000000 ) ) ;
#71 = CARTESIAN_POINT ( 'NONE',  ( 9.426999614876460059E-14, -3.306546357697853733E-15, 27.00000000000000000 ) ) ;
#72 = FACE_OUTER_BOUND ( 'NONE', #49, .T. ) ;
#73 = CARTESIAN_POINT ( 'NONE',  ( 5.204748896376227033E-16, -4.249999999999994671, -5.204748896376262532E-16 ) ) ;
#74 = AXIS2_PLACEMENT_3D ( 'NONE', #115, #141, #172 ) ;
#75 = CARTESIAN_POINT ( 'NONE',  ( 2.758270257686075477E-13, -9.674709713264090904E-15, 79.00000000000000000 ) ) ;
#76 = PERSON_AND_ORGANIZATION_ROLE ( 'creator' ) ;
#77 = CARTESIAN_POINT ( 'NONE',  ( 2.730338406975330915E-13, -9.576737969332302470E-15, 78.20000000000000284 ) ) ;
#78 =( GEOMETRIC_REPRESENTATION_CONTEXT ( 3 ) GLOBAL_UNCERTAINTY_ASSIGNED_CONTEXT ( ( #200 ) ) GLOBAL_UNIT_ASSIGNED_CONTEXT ( ( #28, #226, #121 ) ) REPRESENTATION_CONTEXT ( 'NONE', 'WORKASPACE' ) );
#79 = VERTEX_POINT ( 'NONE', #108 ) ;
#80 = FACE_OUTER_BOUND ( 'NONE', #310, .T. ) ;
#81 = ORIENTED_EDGE ( 'NONE', *, *, #20, .T. ) ;
#82 = CARTESIAN_POINT ( 'NONE',  ( 9.426999614876460059E-14, -3.306546357697853733E-15, 27.00000000000000000 ) ) ;
#83 = CALENDAR_DATE ( 2021, 3, 9 ) ;
#84 = DIRECTION ( 'NONE',  ( -3.491481338843133355E-15, 1.224646799147353207E-16, -1.000000000000000000 ) ) ;
#85 = PERSON_AND_ORGANIZATION ( #26, #53 ) ;
#86 = DIRECTION ( 'NONE',  ( -3.491481338843133355E-15, 1.224646799147353207E-16, -1.000000000000000000 ) ) ;
#87 = EDGE_CURVE ( 'NONE', #60, #31, #332, .T. ) ;
#88 = APPROVAL_ROLE ( '' ) ;
#89 = PERSON_AND_ORGANIZATION_ROLE ( 'creator' ) ;
#90 = AXIS2_PLACEMENT_3D ( 'NONE', #133, #211, #210 ) ;
#91 = CC_DESIGN_APPROVAL ( #194, ( #46 ) ) ;
#92 = FACE_OUTER_BOUND ( 'NONE', #235, .T. ) ;
#93 = ADVANCED_FACE ( 'NONE', ( #156 ), #222, .F. ) ;
#94 = DIRECTION ( 'NONE',  ( 1.903218546456022717E-15, 0.8571673007021097801, 0.5150380749100585964 ) ) ;
#95 = CARTESIAN_POINT ( 'NONE',  ( 1.817228364506205262E-30, 4.249999999999994671, 5.204748896376245769E-16 ) ) ;
#96 = CYLINDRICAL_SURFACE ( 'NONE', #166, 4.249999999999994671 ) ;
#97 = EDGE_CURVE ( 'NONE', #31, #60, #207, .T. ) ;
#98 = LOCAL_TIME ( 9, 22, 27.00000000000000000, #267 ) ;
#99 = EDGE_CURVE ( 'NONE', #31, #79, #219, .T. ) ;
#100 = CARTESIAN_POINT ( 'NONE',  ( 8.916047963967036113E-15, -4.249999999999993783, 2.553657630867154360 ) ) ;
#101 = CYLINDRICAL_SURFACE ( 'NONE', #131, 4.249999999999994671 ) ;
#102 = VERTEX_POINT ( 'NONE', #276 ) ;
#103 = VECTOR ( 'NONE', #40, 1000.000000000000000 ) ;
#104 = ORIENTED_EDGE ( 'NONE', *, *, #87, .T. ) ;
#105 = CARTESIAN_POINT ( 'NONE',  ( 0.0000000000000000000, 0.0000000000000000000, 0.0000000000000000000 ) ) ;
#106 = ORIENTED_EDGE ( 'NONE', *, *, #20, .F. ) ;
#107 = DIRECTION ( 'NONE',  ( 0.0000000000000000000, 1.000000000000000000, 0.0000000000000000000 ) ) ;
#108 = CARTESIAN_POINT ( 'NONE',  ( 1.841723933127864326E-13, -4.250000000000000000, 27.00000000000000000 ) ) ;
#109 = APPROVAL_DATE_TIME ( #136, #194 ) ;
#110 = VECTOR ( 'NONE', #230, 1000.000000000000000 ) ;
#111 = ORIENTED_EDGE ( 'NONE', *, *, #6, .T. ) ;
#112 = CONICAL_SURFACE ( 'NONE', #181, 3.450000000000002842, 0.7853981633974512766 ) ;
#113 = CARTESIAN_POINT ( 'NONE',  ( 9.436522853604663649E-15, 4.249999999999993783, 2.553657630867155248 ) ) ;
#114 = MECHANICAL_CONTEXT ( 'NONE', #213, 'mechanical' ) ;
#115 = CARTESIAN_POINT ( 'NONE',  ( 9.426999614876460059E-14, -3.306546357697853733E-15, 27.00000000000000000 ) ) ;
#116 = DESIGN_CONTEXT ( 'detailed design', #296, 'design' ) ;
#117 = CARTESIAN_POINT ( 'NONE',  ( 2.758270257686075477E-13, 2.587085625091692057E-32, 79.00000000000000000 ) ) ;
#118 = AXIS2_PLACEMENT_3D ( 'NONE', #71, #257, #216 ) ;
#119 = EDGE_LOOP ( 'NONE', ( #201, #106 ) ) ;
#120 = ADVANCED_FACE ( 'NONE', ( #92 ), #37, .T. ) ;
#121 =( NAMED_UNIT ( * ) SI_UNIT ( $, .STERADIAN. ) SOLID_ANGLE_UNIT ( ) );
#122 = CC_DESIGN_PERSON_AND_ORGANIZATION_ASSIGNMENT ( #212, #76, ( #46 ) ) ;
#123 = DIRECTION ( 'NONE',  ( -3.491481338843133355E-15, 1.224646799147353207E-16, -1.000000000000000000 ) ) ;
#124 = CARTESIAN_POINT ( 'NONE',  ( 2.762495289143133600E-13, -3.450000000000012612, 79.00000000000000000 ) ) ;
#125 = CIRCLE ( 'NONE', #132, 4.249999999999993783 ) ;
#126 = DIRECTION ( 'NONE',  ( 4.275831445896958607E-31, 1.000000000000000000, 1.224646799147353207E-16 ) ) ;
#127 = ORIENTED_EDGE ( 'NONE', *, *, #248, .T. ) ;
#128 = DIRECTION ( 'NONE',  ( -3.491481338843133355E-15, 1.224646799147353207E-16, -1.000000000000000000 ) ) ;
#129 = EDGE_CURVE ( 'NONE', #287, #239, #252, .T. ) ;
#130 = CYLINDRICAL_SURFACE ( 'NONE', #61, 4.250000000000000000 ) ;
#131 = AXIS2_PLACEMENT_3D ( 'NONE', #159, #10, #62 ) ;
#132 = AXIS2_PLACEMENT_3D ( 'NONE', #329, #70, #180 ) ;
#133 = CARTESIAN_POINT ( 'NONE',  ( 2.758270257686075477E-13, -9.674709713264090904E-15, 79.00000000000000000 ) ) ;
#134 = DIRECTION ( 'NONE',  ( -2.382254525458708792E-15, -0.7071067811865495711, -0.7071067811865455743 ) ) ;
#135 = ADVANCED_BREP_SHAPE_REPRESENTATION ( '42653', ( #158, #280, #263 ), #78 ) ;
#136 = DATE_AND_TIME ( #83, #69 ) ;
#137 = CARTESIAN_POINT ( 'NONE',  ( 2.758270257686075477E-13, 3.449999999999993516, 79.00000000000000000 ) ) ;
#138 = CC_DESIGN_PERSON_AND_ORGANIZATION_ASSIGNMENT ( #319, #3, ( #46 ) ) ;
#139 = ORIENTED_EDGE ( 'NONE', *, *, #42, .T. ) ;
#140 = DIRECTION ( 'NONE',  ( -3.491481338843133355E-15, 1.224646799147353207E-16, -1.000000000000000000 ) ) ;
#141 = DIRECTION ( 'NONE',  ( -3.491481338843133355E-15, 1.224646799147353207E-16, -1.000000000000000000 ) ) ;
#142 = ORIENTED_EDGE ( 'NONE', *, *, #288, .F. ) ;
#143 = EDGE_LOOP ( 'NONE', ( #289, #315, #29, #264 ) ) ;
#144 = DATE_TIME_ROLE ( 'classification_date' ) ;
#145 = DIRECTION ( 'NONE',  ( -3.625279895317155354E-31, -1.000000000000000000, -1.020425574104005725E-16 ) ) ;
#146 = CC_DESIGN_PERSON_AND_ORGANIZATION_ASSIGNMENT ( #85, #154, ( #285 ) ) ;
#147 = CIRCLE ( 'NONE', #160, 4.249999999999993783 ) ;
#148 = EDGE_CURVE ( 'NONE', #102, #322, #196, .T. ) ;
#149 = CARTESIAN_POINT ( 'NONE',  ( 2.758270257686075477E-13, -9.674709713264090904E-15, 79.00000000000000000 ) ) ;
#150 = EDGE_LOOP ( 'NONE', ( #104, #34, #268, #220 ) ) ;
#151 = DIRECTION ( 'NONE',  ( 0.0000000000000000000, 0.0000000000000000000, 1.000000000000000000 ) ) ;
#152 = AXIS2_PLACEMENT_3D ( 'NONE', #75, #128, #30 ) ;
#153 = VERTEX_POINT ( 'NONE', #258 ) ;
#154 = PERSON_AND_ORGANIZATION_ROLE ( 'classification_officer' ) ;
#155 = EDGE_CURVE ( 'NONE', #287, #102, #282, .T. ) ;
#156 = FACE_OUTER_BOUND ( 'NONE', #14, .T. ) ;
#157 = DIRECTION ( 'NONE',  ( 1.798245827342160317E-15, -0.8571673007021098911, 0.5150380749100582634 ) ) ;
#158 = MANIFOLD_SOLID_BREP ( 'Corps-Déplacer/Copier1[1]', #270 ) ;
#159 = CARTESIAN_POINT ( 'NONE',  ( 0.0000000000000000000, 0.0000000000000000000, 0.0000000000000000000 ) ) ;
#160 = AXIS2_PLACEMENT_3D ( 'NONE', #297, #2, #206 ) ;
#161 = CC_DESIGN_PERSON_AND_ORGANIZATION_ASSIGNMENT ( #39, #89, ( #182 ) ) ;
#162 = APPROVAL_STATUS ( 'not_yet_approved' ) ;
#163 = AXIS2_PLACEMENT_3D ( 'NONE', #82, #293, #107 ) ;
#164 = DIRECTION ( 'NONE',  ( -3.491481338843133355E-15, 1.224646799147353207E-16, -1.000000000000000000 ) ) ;
#165 = CALENDAR_DATE ( 2021, 3, 9 ) ;
#166 = AXIS2_PLACEMENT_3D ( 'NONE', #283, #65, #175 ) ;
#167 = CC_DESIGN_SECURITY_CLASSIFICATION ( #285, ( #46 ) ) ;
#168 = APPROVAL_STATUS ( 'not_yet_approved' ) ;
#169 = ADVANCED_FACE ( 'NONE', ( #204 ), #188, .T. ) ;
#170 = PERSON_AND_ORGANIZATION ( #26, #53 ) ;
#171 = DATE_AND_TIME ( #193, #25 ) ;
#172 = DIRECTION ( 'NONE',  ( 0.0000000000000000000, 1.000000000000000000, 0.0000000000000000000 ) ) ;
#173 = DATE_AND_TIME ( #165, #301 ) ;
#174 = CC_DESIGN_APPROVAL ( #313, ( #285 ) ) ;
#175 = DIRECTION ( 'NONE',  ( 4.275831445896958607E-31, 1.000000000000000000, 1.224646799147353454E-16 ) ) ;
#176 = PRODUCT_RELATED_PRODUCT_CATEGORY ( 'detail', '', ( #281 ) ) ;
#177 = APPLICATION_PROTOCOL_DEFINITION ( 'international standard', 'config_control_design', 1994, #213 ) ;
#178 = VECTOR ( 'NONE', #277, 1000.000000000000114 ) ;
#179 = AXIS2_PLACEMENT_3D ( 'NONE', #251, #306, #227 ) ;
#180 = DIRECTION ( 'NONE',  ( 3.625279895317155354E-31, 1.000000000000000000, 1.020425574104005725E-16 ) ) ;
#181 = AXIS2_PLACEMENT_3D ( 'NONE', #266, #314, #290 ) ;
#182 = PRODUCT_DEFINITION ( 'UNKNOWN', '', #46, #116 ) ;
#183 = LINE ( 'NONE', #55, #214 ) ;
#184 = ORIENTED_EDGE ( 'NONE', *, *, #99, .F. ) ;
#185 = ORIENTED_EDGE ( 'NONE', *, *, #248, .F. ) ;
#186 = APPROVAL ( #168, 'UNSPECIFIED' ) ;
#187 = FACE_OUTER_BOUND ( 'NONE', #300, .T. ) ;
#188 = CONICAL_SURFACE ( 'NONE', #265, 3.450000000000002842, 0.7853981633974512766 ) ;
#189 = CARTESIAN_POINT ( 'NONE',  ( 9.436522853604663649E-15, 4.249999999999993783, 2.553657630867155248 ) ) ;
#190 = ADVANCED_FACE ( 'NONE', ( #72 ), #261, .F. ) ;
#191 = CARTESIAN_POINT ( 'NONE',  ( 9.426999614876460059E-14, 3.186989538156440027E-32, 27.00000000000000000 ) ) ;
#192 = DIRECTION ( 'NONE',  ( -3.491481338843133355E-15, 1.224646799147353207E-16, -1.000000000000000000 ) ) ;
#193 = CALENDAR_DATE ( 2021, 3, 9 ) ;
#194 = APPROVAL ( #12, 'UNSPECIFIED' ) ;
#195 = AXIS2_PLACEMENT_3D ( 'NONE', #238, #140, #66 ) ;
#196 = LINE ( 'NONE', #73, #110 ) ;
#197 = FACE_OUTER_BOUND ( 'NONE', #334, .T. ) ;
#198 = AXIS2_PLACEMENT_3D ( 'NONE', #1, #308, #5 ) ;
#199 = DATE_AND_TIME ( #18, #9 ) ;
#200 = UNCERTAINTY_MEASURE_WITH_UNIT (LENGTH_MEASURE( 1.000000000000000082E-05 ), #28, 'distance_accuracy_value', 'NONE');
#201 = ORIENTED_EDGE ( 'NONE', *, *, #155, .F. ) ;
#202 = APPROVAL_PERSON_ORGANIZATION ( #224, #313, #88 ) ;
#203 = DIRECTION ( 'NONE',  ( 4.275831445896958607E-31, 1.000000000000000000, 1.224646799147353207E-16 ) ) ;
#204 = FACE_OUTER_BOUND ( 'NONE', #215, .T. ) ;
#205 = ADVANCED_FACE ( 'NONE', ( #80 ), #101, .T. ) ;
#206 = DIRECTION ( 'NONE',  ( 3.625279895317155354E-31, 1.000000000000000000, 1.020425574104005725E-16 ) ) ;
#207 = CIRCLE ( 'NONE', #19, 4.250000000000002665 ) ;
#208 = FACE_OUTER_BOUND ( 'NONE', #150, .T. ) ;
#209 = ORIENTED_EDGE ( 'NONE', *, *, #97, .T. ) ;
#210 = DIRECTION ( 'NONE',  ( 0.0000000000000000000, 1.000000000000000000, 0.0000000000000000000 ) ) ;
#211 = DIRECTION ( 'NONE',  ( -3.491481338843133355E-15, 1.224646799147353207E-16, -1.000000000000000000 ) ) ;
#212 = PERSON_AND_ORGANIZATION ( #26, #53 ) ;
#213 = APPLICATION_CONTEXT ( 'configuration controlled 3d designs of mechanical parts and assemblies' ) ;
#214 = VECTOR ( 'NONE', #157, 1000.000000000000000 ) ;
#215 = EDGE_LOOP ( 'NONE', ( #240, #245, #52, #16 ) ) ;
#216 = DIRECTION ( 'NONE',  ( 0.0000000000000000000, 1.000000000000000000, 0.0000000000000000000 ) ) ;
#217 = PERSON_AND_ORGANIZATION ( #26, #53 ) ;
#218 = AXIS2_PLACEMENT_3D ( 'NONE', #117, #86, #126 ) ;
#219 = LINE ( 'NONE', #43, #254 ) ;
#220 = ORIENTED_EDGE ( 'NONE', *, *, #228, .F. ) ;
#221 = ORIENTED_EDGE ( 'NONE', *, *, #244, .F. ) ;
#222 = PLANE ( 'NONE',  #304 ) ;
#223 = EDGE_CURVE ( 'NONE', #79, #259, #68, .T. ) ;
#224 = PERSON_AND_ORGANIZATION ( #26, #53 ) ;
#225 = AXIS2_PLACEMENT_3D ( 'NONE', #45, #243, #145 ) ;
#226 =( NAMED_UNIT ( * ) PLANE_ANGLE_UNIT ( ) SI_UNIT ( $, .RADIAN. ) );
#227 = DIRECTION ( 'NONE',  ( -3.625279895317155354E-31, -1.000000000000000000, -1.020425574104005725E-16 ) ) ;
#228 = EDGE_CURVE ( 'NONE', #60, #259, #36, .T. ) ;
#229 = DIRECTION ( 'NONE',  ( -3.491481338843133355E-15, 1.224646799147353207E-16, -1.000000000000000000 ) ) ;
#230 = DIRECTION ( 'NONE',  ( -3.491481338843133355E-15, 1.224646799147353207E-16, -1.000000000000000000 ) ) ;
#231 = CC_DESIGN_PERSON_AND_ORGANIZATION_ASSIGNMENT ( #170, #44, ( #281 ) ) ;
#232 = PLANE ( 'NONE',  #198 ) ;
#233 = VERTEX_POINT ( 'NONE', #247 ) ;
#234 = LINE ( 'NONE', #124, #237 ) ;
#235 = EDGE_LOOP ( 'NONE', ( #142, #337, #321 ) ) ;
#236 = CIRCLE ( 'NONE', #118, 4.249999999999996447 ) ;
#237 = VECTOR ( 'NONE', #134, 1000.000000000000114 ) ;
#238 = CARTESIAN_POINT ( 'NONE',  ( 0.0000000000000000000, 0.0000000000000000000, 0.0000000000000000000 ) ) ;
#239 = VERTEX_POINT ( 'NONE', #189 ) ;
#240 = ORIENTED_EDGE ( 'NONE', *, *, #260, .T. ) ;
#241 = CARTESIAN_POINT ( 'NONE',  ( 2.758270257686075477E-13, 3.449999999999993516, 79.00000000000000000 ) ) ;
#242 = CC_DESIGN_APPROVAL ( #186, ( #182 ) ) ;
#243 = DIRECTION ( 'NONE',  ( 3.491481338843133355E-15, -1.224646799147353207E-16, 1.000000000000000000 ) ) ;
#244 = EDGE_CURVE ( 'NONE', #153, #239, #249, .T. ) ;
#245 = ORIENTED_EDGE ( 'NONE', *, *, #318, .T. ) ;
#246 = SHAPE_DEFINITION_REPRESENTATION ( #41, #135 ) ;
#247 = CARTESIAN_POINT ( 'NONE',  ( 2.749019222507419653E-13, -3.450000000000012612, 79.00000000000000000 ) ) ;
#248 = EDGE_CURVE ( 'NONE', #322, #239, #147, .T. ) ;
#249 = LINE ( 'NONE', #113, #15 ) ;
#250 = CONICAL_SURFACE ( 'NONE', #179, 4.249999999999993783, 1.029744258676649649 ) ;
#251 = CARTESIAN_POINT ( 'NONE',  ( 8.916047963967037691E-15, -3.127328643759674220E-16, 2.553657630867154804 ) ) ;
#252 = LINE ( 'NONE', #95, #103 ) ;
#253 = CARTESIAN_POINT ( 'NONE',  ( 1.841723933127863568E-13, -4.250000000000013323, 78.20000000000000284 ) ) ;
#254 = VECTOR ( 'NONE', #192, 1000.000000000000000 ) ;
#255 = ORIENTED_EDGE ( 'NONE', *, *, #288, .T. ) ;
#256 = ORIENTED_EDGE ( 'NONE', *, *, #318, .F. ) ;
#257 = DIRECTION ( 'NONE',  ( -3.491481338843133355E-15, 1.224646799147353207E-16, -1.000000000000000000 ) ) ;
#258 = CARTESIAN_POINT ( 'NONE',  ( 0.0000000000000000000, 0.0000000000000000000, 0.0000000000000000000 ) ) ;
#259 = VERTEX_POINT ( 'NONE', #311 ) ;
#260 = EDGE_CURVE ( 'NONE', #4, #233, #299, .T. ) ;
#261 = PLANE ( 'NONE',  #218 ) ;
#262 = CIRCLE ( 'NONE', #90, 3.450000000000002842 ) ;
#263 = AXIS2_PLACEMENT_3D ( 'NONE', #21, #151, #317 ) ;
#264 = ORIENTED_EDGE ( 'NONE', *, *, #129, .F. ) ;
#265 = AXIS2_PLACEMENT_3D ( 'NONE', #149, #123, #307 ) ;
#266 = CARTESIAN_POINT ( 'NONE',  ( 2.758270257686075477E-13, -9.674709713264090904E-15, 79.00000000000000000 ) ) ;
#267 = COORDINATED_UNIVERSAL_TIME_OFFSET ( 1, 0, .AHEAD. ) ;
#268 = ORIENTED_EDGE ( 'NONE', *, *, #42, .F. ) ;
#269 = DIRECTION ( 'NONE',  ( 0.0000000000000000000, 1.000000000000000000, 0.0000000000000000000 ) ) ;
#270 = CLOSED_SHELL ( 'NONE', ( #169, #13, #93, #27, #33, #190 ) ) ;
#271 = DIRECTION ( 'NONE',  ( -4.275831445896958607E-31, -1.000000000000000000, -1.224646799147353207E-16 ) ) ;
#272 = COORDINATED_UNIVERSAL_TIME_OFFSET ( 1, 0, .AHEAD. ) ;
#273 = DATE_AND_TIME ( #325, #98 ) ;
#274 = APPROVAL_DATE_TIME ( #173, #186 ) ;
#275 = DIRECTION ( 'NONE',  ( 0.0000000000000000000, 1.000000000000000000, 0.0000000000000000000 ) ) ;
#276 = CARTESIAN_POINT ( 'NONE',  ( 5.211349694600340487E-14, -4.250000000000000000, 27.00000000000000000 ) ) ;
#277 = DIRECTION ( 'NONE',  ( -2.468850131082257455E-15, 0.7071067811865497932, -0.7071067811865453523 ) ) ;
#278 = ORIENTED_EDGE ( 'NONE', *, *, #129, .T. ) ;
#279 = CC_DESIGN_DATE_AND_TIME_ASSIGNMENT ( #199, #335, ( #182 ) ) ;
#280 = MANIFOLD_SOLID_BREP ( 'Corps-Déplacer/Copier1[2]', #50 ) ;
#281 = PRODUCT ( '42653', '42653', '', ( #114 ) ) ;
#282 = CIRCLE ( 'NONE', #324, 4.249999999999996447 ) ;
#283 = CARTESIAN_POINT ( 'NONE',  ( 0.0000000000000000000, 0.0000000000000000000, 0.0000000000000000000 ) ) ;
#284 = CARTESIAN_POINT ( 'NONE',  ( 9.426999614876460059E-14, -3.306546357697853733E-15, 27.00000000000000000 ) ) ;
#285 = SECURITY_CLASSIFICATION ( '', '', #54 ) ;
#286 = ORIENTED_EDGE ( 'NONE', *, *, #51, .F. ) ;
#287 = VERTEX_POINT ( 'NONE', #8 ) ;
#288 = EDGE_CURVE ( 'NONE', #153, #322, #183, .T. ) ;
#289 = ORIENTED_EDGE ( 'NONE', *, *, #155, .T. ) ;
#290 = DIRECTION ( 'NONE',  ( 0.0000000000000000000, 1.000000000000000000, 0.0000000000000000000 ) ) ;
#291 = ORIENTED_EDGE ( 'NONE', *, *, #223, .F. ) ;
#292 = ADVANCED_FACE ( 'NONE', ( #187 ), #250, .T. ) ;
#293 = DIRECTION ( 'NONE',  ( -3.491481338843133355E-15, 1.224646799147353207E-16, -1.000000000000000000 ) ) ;
#294 = CIRCLE ( 'NONE', #163, 4.249999999999996447 ) ;
#295 = LINE ( 'NONE', #241, #178 ) ;
#296 = APPLICATION_CONTEXT ( 'configuration controlled 3d designs of mechanical parts and assemblies' ) ;
#297 = CARTESIAN_POINT ( 'NONE',  ( 8.916047963967037691E-15, -3.127328643759674220E-16, 2.553657630867154804 ) ) ;
#298 = APPROVAL_ROLE ( '' ) ;
#299 = CIRCLE ( 'NONE', #152, 3.450000000000002842 ) ;
#300 = EDGE_LOOP ( 'NONE', ( #221, #255, #127 ) ) ;
#301 = LOCAL_TIME ( 9, 22, 27.00000000000000000, #326 ) ;
#302 = CYLINDRICAL_SURFACE ( 'NONE', #195, 4.250000000000000000 ) ;
#303 = EDGE_CURVE ( 'NONE', #239, #322, #125, .T. ) ;
#304 = AXIS2_PLACEMENT_3D ( 'NONE', #191, #330, #271 ) ;
#305 = ADVANCED_FACE ( 'NONE', ( #67 ), #96, .T. ) ;
#306 = DIRECTION ( 'NONE',  ( 3.491481338843133355E-15, -1.224646799147353207E-16, 1.000000000000000000 ) ) ;
#307 = DIRECTION ( 'NONE',  ( 0.0000000000000000000, 1.000000000000000000, 0.0000000000000000000 ) ) ;
#308 = DIRECTION ( 'NONE',  ( 3.491481338843133355E-15, -1.224646799147353207E-16, 1.000000000000000000 ) ) ;
#309 = VECTOR ( 'NONE', #164, 1000.000000000000000 ) ;
#310 = EDGE_LOOP ( 'NONE', ( #312, #81, #278, #185 ) ) ;
#311 = CARTESIAN_POINT ( 'NONE',  ( 9.426999614876460059E-14, 4.249999999999993783, 27.00000000000000000 ) ) ;
#312 = ORIENTED_EDGE ( 'NONE', *, *, #148, .F. ) ;
#313 = APPROVAL ( #162, 'UNSPECIFIED' ) ;
#314 = DIRECTION ( 'NONE',  ( -3.491481338843133355E-15, 1.224646799147353207E-16, -1.000000000000000000 ) ) ;
#315 = ORIENTED_EDGE ( 'NONE', *, *, #148, .T. ) ;
#316 = ORIENTED_EDGE ( 'NONE', *, *, #51, .T. ) ;
#317 = DIRECTION ( 'NONE',  ( 1.000000000000000000, 0.0000000000000000000, 0.0000000000000000000 ) ) ;
#318 = EDGE_CURVE ( 'NONE', #233, #31, #234, .T. ) ;
#319 = PERSON_AND_ORGANIZATION ( #26, #53 ) ;
#320 = APPROVAL_PERSON_ORGANIZATION ( #23, #194, #58 ) ;
#321 = ORIENTED_EDGE ( 'NONE', *, *, #303, .T. ) ;
#322 = VERTEX_POINT ( 'NONE', #100 ) ;
#323 = APPLICATION_PROTOCOL_DEFINITION ( 'international standard', 'config_control_design', 1994, #296 ) ;
#324 = AXIS2_PLACEMENT_3D ( 'NONE', #284, #22, #48 ) ;
#325 = CALENDAR_DATE ( 2021, 3, 9 ) ;
#326 = COORDINATED_UNIVERSAL_TIME_OFFSET ( 1, 0, .AHEAD. ) ;
#327 = COORDINATED_UNIVERSAL_TIME_OFFSET ( 1, 0, .AHEAD. ) ;
#328 = DIRECTION ( 'NONE',  ( -3.491481338843133355E-15, 1.224646799147353207E-16, -1.000000000000000000 ) ) ;
#329 = CARTESIAN_POINT ( 'NONE',  ( 8.916047963967037691E-15, -3.127328643759674220E-16, 2.553657630867154804 ) ) ;
#330 = DIRECTION ( 'NONE',  ( 3.491481338843133355E-15, -1.224646799147353207E-16, 1.000000000000000000 ) ) ;
#331 = ADVANCED_FACE ( 'NONE', ( #11 ), #232, .T. ) ;
#332 = CIRCLE ( 'NONE', #32, 4.250000000000002665 ) ;
#333 = ORIENTED_EDGE ( 'NONE', *, *, #260, .F. ) ;
#334 = EDGE_LOOP ( 'NONE', ( #184, #209, #24, #291 ) ) ;
#335 = DATE_TIME_ROLE ( 'creation_date' ) ;
#336 = EDGE_LOOP ( 'NONE', ( #256, #316, #111, #59 ) ) ;
#337 = ORIENTED_EDGE ( 'NONE', *, *, #244, .T. ) ;
ENDSEC;
END-ISO-10303-21;
