ISO-10303-21;
HEADER;
FILE_DESCRIPTION (( 'STEP AP203' ),
    '1' );
FILE_NAME ('42652.step',
    '2021-09-03T07:22:27',
    ( '' ),
    ( '' ),
    'SwSTEP 2.0',
    'SolidWorks 2019',
    '' );
FILE_SCHEMA (( 'CONFIG_CONTROL_DESIGN' ));
ENDSEC;

DATA;
#1 = ORIENTED_EDGE ( 'NONE', *, *, #292, .F. ) ;
#2 = ORIENTED_EDGE ( 'NONE', *, *, #290, .T. ) ;
#3 = PLANE ( 'NONE',  #84 ) ;
#4 = LINE ( 'NONE', #191, #160 ) ;
#5 = VERTEX_POINT ( 'NONE', #106 ) ;
#6 = ADVANCED_FACE ( 'NONE', ( #73 ), #113, .T. ) ;
#7 = FACE_OUTER_BOUND ( 'NONE', #123, .T. ) ;
#8 = VERTEX_POINT ( 'NONE', #300 ) ;
#9 = CIRCLE ( 'NONE', #288, 2.049999999999998934 ) ;
#10 = CONICAL_SURFACE ( 'NONE', #155, 2.049999999999992273, 1.029744258676649649 ) ;
#11 = EDGE_LOOP ( 'NONE', ( #138, #255 ) ) ;
#12 = ORIENTED_EDGE ( 'NONE', *, *, #68, .T. ) ;
#13 = ADVANCED_BREP_SHAPE_REPRESENTATION ( '42652', ( #61, #285, #274 ), #233 ) ;
#14 = DIRECTION ( 'NONE',  ( -3.491481338843133355E-15, 1.224646799147353207E-16, -1.000000000000000000 ) ) ;
#15 = EDGE_CURVE ( 'NONE', #102, #180, #246, .T. ) ;
#16 = CONICAL_SURFACE ( 'NONE', #119, 1.549999999999999156, 0.7853981633974547183 ) ;
#17 = EDGE_LOOP ( 'NONE', ( #82, #265, #1, #166 ) ) ;
#18 = CARTESIAN_POINT ( 'NONE',  ( 4.300681959089975527E-15, -1.508476169342899336E-16, 1.231764269006507817 ) ) ;
#19 = AXIS2_PLACEMENT_3D ( 'NONE', #305, #247, #189 ) ;
#20 = PRODUCT_DEFINITION_SHAPE ( 'NONE', 'NONE',  #332 ) ;
#21 = EDGE_CURVE ( 'NONE', #137, #66, #64, .T. ) ;
#22 = DIRECTION ( 'NONE',  ( -3.491481338843133355E-15, 1.224646799147353207E-16, -1.000000000000000000 ) ) ;
#23 =( NAMED_UNIT ( * ) PLANE_ANGLE_UNIT ( ) SI_UNIT ( $, .RADIAN. ) );
#24 = PERSON_AND_ORGANIZATION ( #157, #308 ) ;
#25 = ORIENTED_EDGE ( 'NONE', *, *, #290, .F. ) ;
#26 = CARTESIAN_POINT ( 'NONE',  ( 8.765454464088738081E-31, 2.049999999999993605, 2.510525938252066297E-16 ) ) ;
#27 = CC_DESIGN_APPROVAL ( #225, ( #173 ) ) ;
#28 = EDGE_CURVE ( 'NONE', #8, #5, #135, .T. ) ;
#29 = ORIENTED_EDGE ( 'NONE', *, *, #198, .F. ) ;
#30 = CARTESIAN_POINT ( 'NONE',  ( 1.250715104574670876E-13, -2.050000000000005596, 54.50000000000000711 ) ) ;
#31 = VERTEX_POINT ( 'NONE', #124 ) ;
#32 = AXIS2_PLACEMENT_3D ( 'NONE', #219, #250, #107 ) ;
#33 = EDGE_CURVE ( 'NONE', #180, #286, #9, .T. ) ;
#34 = CALENDAR_DATE ( 2021, 3, 9 ) ;
#35 = APPROVAL_ROLE ( '' ) ;
#36 = CALENDAR_DATE ( 2021, 3, 9 ) ;
#37 = ORIENTED_EDGE ( 'NONE', *, *, #249, .T. ) ;
#38 = AXIS2_PLACEMENT_3D ( 'NONE', #49, #22, #241 ) ;
#39 = PERSON_AND_ORGANIZATION_ROLE ( 'creator' ) ;
#40 = DIRECTION ( 'NONE',  ( -4.275831445896958607E-31, -1.000000000000000000, -1.224646799147353207E-16 ) ) ;
#41 = DIRECTION ( 'NONE',  ( 1.798245827342160317E-15, -0.8571673007021098911, 0.5150380749100582634 ) ) ;
#42 = DIRECTION ( 'NONE',  ( -3.491481338843133355E-15, 1.224646799147353207E-16, -1.000000000000000000 ) ) ;
#43 = DATE_AND_TIME ( #36, #310 ) ;
#44 = APPROVAL_DATE_TIME ( #178, #225 ) ;
#45 = CC_DESIGN_PERSON_AND_ORGANIZATION_ASSIGNMENT ( #182, #280, ( #173 ) ) ;
#46 = SECURITY_CLASSIFICATION_LEVEL ( 'unclassified' ) ;
#47 = CYLINDRICAL_SURFACE ( 'NONE', #19, 2.049999999999993605 ) ;
#48 = CARTESIAN_POINT ( 'NONE',  ( 5.935518276033326704E-14, 2.049999999999992273, 17.00000000000000000 ) ) ;
#49 = CARTESIAN_POINT ( 'NONE',  ( 5.935518276033326704E-14, -2.081899558550500280E-15, 17.00000000000000000 ) ) ;
#50 = CARTESIAN_POINT ( 'NONE',  ( 5.935518276033326704E-14, -2.081899558550500280E-15, 17.00000000000000000 ) ) ;
#51 = CARTESIAN_POINT ( 'NONE',  ( 0.0000000000000000000, 0.0000000000000000000, 0.0000000000000000000 ) ) ;
#52 = CARTESIAN_POINT ( 'NONE',  ( 3.207898495353679355E-14, -2.049999999999996714, 17.00000000000000000 ) ) ;
#53 = APPROVAL_PERSON_ORGANIZATION ( #266, #225, #236 ) ;
#54 = CARTESIAN_POINT ( 'NONE',  ( 1.920314736363723472E-13, 1.549999999999992273, 55.00000000000000000 ) ) ;
#55 = AXIS2_PLACEMENT_3D ( 'NONE', #278, #237, #210 ) ;
#56 = CC_DESIGN_PERSON_AND_ORGANIZATION_ASSIGNMENT ( #216, #334, ( #173 ) ) ;
#57 = CARTESIAN_POINT ( 'NONE',  ( 4.551734552915182896E-15, 2.049999999999992273, 1.231764269006508039 ) ) ;
#58 = DIRECTION ( 'NONE',  ( 0.0000000000000000000, 1.000000000000000000, 0.0000000000000000000 ) ) ;
#59 = ORIENTED_EDGE ( 'NONE', *, *, #33, .T. ) ;
#60 = CARTESIAN_POINT ( 'NONE',  ( 4.300681959089975527E-15, -1.508476169342899336E-16, 1.231764269006507817 ) ) ;
#61 = MANIFOLD_SOLID_BREP ( 'Corps-Déplacer/Copier1[1]', #214 ) ;
#62 = DIRECTION ( 'NONE',  ( 1.903218546456022717E-15, 0.8571673007021097801, 0.5150380749100585964 ) ) ;
#63 = SHAPE_DEFINITION_REPRESENTATION ( #20, #13 ) ;
#64 = CIRCLE ( 'NONE', #150, 2.049999999999994493 ) ;
#65 = AXIS2_PLACEMENT_3D ( 'NONE', #145, #42, #95 ) ;
#66 = VERTEX_POINT ( 'NONE', #48 ) ;
#67 = APPROVAL_STATUS ( 'not_yet_approved' ) ;
#68 = EDGE_CURVE ( 'NONE', #5, #8, #200, .T. ) ;
#69 = CALENDAR_DATE ( 2021, 3, 9 ) ;
#70 = AXIS2_PLACEMENT_3D ( 'NONE', #50, #298, #132 ) ;
#71 = ORIENTED_EDGE ( 'NONE', *, *, #299, .T. ) ;
#72 = LOCAL_TIME ( 9, 22, 27.00000000000000000, #242 ) ;
#73 = FACE_OUTER_BOUND ( 'NONE', #141, .T. ) ;
#74 = CARTESIAN_POINT ( 'NONE',  ( 1.920314736363723472E-13, -6.735557395310442615E-15, 55.00000000000000000 ) ) ;
#75 = ORIENTED_EDGE ( 'NONE', *, *, #184, .T. ) ;
#76 = DATE_TIME_ROLE ( 'classification_date' ) ;
#77 = CARTESIAN_POINT ( 'NONE',  ( 5.935518276033326704E-14, -2.081899558550500280E-15, 17.00000000000000000 ) ) ;
#78 = APPROVAL_PERSON_ORGANIZATION ( #133, #134, #35 ) ;
#79 = LOCAL_TIME ( 9, 22, 27.00000000000000000, #203 ) ;
#80 = EDGE_LOOP ( 'NONE', ( #29, #71, #224, #148 ) ) ;
#81 = CARTESIAN_POINT ( 'NONE',  ( 1.902857329669507868E-13, 2.049999999999992273, 54.50000000000000711 ) ) ;
#82 = ORIENTED_EDGE ( 'NONE', *, *, #168, .T. ) ;
#83 = DIRECTION ( 'NONE',  ( -3.491481338843133355E-15, 1.224646799147353207E-16, -1.000000000000000000 ) ) ;
#84 = AXIS2_PLACEMENT_3D ( 'NONE', #86, #162, #151 ) ;
#85 = ORIENTED_EDGE ( 'NONE', *, *, #28, .T. ) ;
#86 = CARTESIAN_POINT ( 'NONE',  ( 1.920314736363723472E-13, 1.162313831562928972E-32, 55.00000000000000000 ) ) ;
#87 = CARTESIAN_POINT ( 'NONE',  ( 5.935518276033326704E-14, 1.537253777228396658E-32, 17.00000000000000000 ) ) ;
#88 = ORIENTED_EDGE ( 'NONE', *, *, #96, .T. ) ;
#89 = DATE_AND_TIME ( #322, #79 ) ;
#90 = CARTESIAN_POINT ( 'NONE',  ( 0.0000000000000000000, 0.0000000000000000000, 0.0000000000000000000 ) ) ;
#91 = PERSON_AND_ORGANIZATION ( #157, #308 ) ;
#92 = LINE ( 'NONE', #57, #240 ) ;
#93 = FACE_OUTER_BOUND ( 'NONE', #11, .T. ) ;
#94 = APPROVAL_DATE_TIME ( #89, #134 ) ;
#95 = DIRECTION ( 'NONE',  ( 4.275831445896959482E-31, 1.000000000000000000, 1.224646799147353207E-16 ) ) ;
#96 = EDGE_CURVE ( 'NONE', #165, #8, #98, .T. ) ;
#97 = FACE_OUTER_BOUND ( 'NONE', #116, .T. ) ;
#98 = LINE ( 'NONE', #172, #251 ) ;
#99 = CONICAL_SURFACE ( 'NONE', #32, 1.549999999999999156, 0.7853981633974547183 ) ;
#100 = APPROVAL_PERSON_ORGANIZATION ( #24, #144, #303 ) ;
#101 = EDGE_CURVE ( 'NONE', #180, #137, #206, .T. ) ;
#102 = VERTEX_POINT ( 'NONE', #218 ) ;
#103 = FACE_OUTER_BOUND ( 'NONE', #306, .T. ) ;
#104 = ORIENTED_EDGE ( 'NONE', *, *, #111, .F. ) ;
#105 =( NAMED_UNIT ( * ) SI_UNIT ( $, .STERADIAN. ) SOLID_ANGLE_UNIT ( ) );
#106 = CARTESIAN_POINT ( 'NONE',  ( 4.551734552915182896E-15, 2.049999999999992273, 1.231764269006508039 ) ) ;
#107 = DIRECTION ( 'NONE',  ( 0.0000000000000000000, 1.000000000000000000, 0.0000000000000000000 ) ) ;
#108 = DIRECTION ( 'NONE',  ( -3.757912086609254755E-31, -1.000000000000000000, -1.057758217059032675E-16 ) ) ;
#109 = DIRECTION ( 'NONE',  ( 0.0000000000000000000, 1.000000000000000000, 0.0000000000000000000 ) ) ;
#110 = ORIENTED_EDGE ( 'NONE', *, *, #235, .T. ) ;
#111 = EDGE_CURVE ( 'NONE', #31, #5, #335, .T. ) ;
#112 = COORDINATED_UNIVERSAL_TIME_OFFSET ( 1, 0, .AHEAD. ) ;
#113 = CONICAL_SURFACE ( 'NONE', #239, 2.049999999999992273, 1.029744258676649649 ) ;
#114 = EDGE_CURVE ( 'NONE', #165, #5, #92, .T. ) ;
#115 = ORIENTED_EDGE ( 'NONE', *, *, #15, .F. ) ;
#116 = EDGE_LOOP ( 'NONE', ( #75, #190 ) ) ;
#117 = DIRECTION ( 'NONE',  ( -3.491481338843133355E-15, 1.224646799147353207E-16, -1.000000000000000000 ) ) ;
#118 = DIRECTION ( 'NONE',  ( 3.491481338843133355E-15, -1.224646799147353207E-16, 1.000000000000000000 ) ) ;
#119 = AXIS2_PLACEMENT_3D ( 'NONE', #192, #161, #223 ) ;
#120 = CARTESIAN_POINT ( 'NONE',  ( 1.920314736363723472E-13, -6.735557395310442615E-15, 55.00000000000000000 ) ) ;
#121 = CIRCLE ( 'NONE', #333, 1.549999999999999156 ) ;
#122 = DATE_TIME_ROLE ( 'creation_date' ) ;
#123 = EDGE_LOOP ( 'NONE', ( #307, #139 ) ) ;
#124 = CARTESIAN_POINT ( 'NONE',  ( 5.935518276033326704E-14, 2.049999999999992273, 17.00000000000000000 ) ) ;
#125 = ORIENTED_EDGE ( 'NONE', *, *, #292, .T. ) ;
#126 = ORIENTED_EDGE ( 'NONE', *, *, #21, .F. ) ;
#127 = MECHANICAL_CONTEXT ( 'NONE', #199, 'mechanical' ) ;
#128 = ADVANCED_FACE ( 'NONE', ( #143 ), #10, .T. ) ;
#129 = CC_DESIGN_APPROVAL ( #144, ( #337 ) ) ;
#130 = CARTESIAN_POINT ( 'NONE',  ( 4.300681959089975527E-15, -1.508476169342899336E-16, 1.231764269006507817 ) ) ;
#131 = FACE_OUTER_BOUND ( 'NONE', #17, .T. ) ;
#132 = DIRECTION ( 'NONE',  ( 0.0000000000000000000, 1.000000000000000000, 0.0000000000000000000 ) ) ;
#133 = PERSON_AND_ORGANIZATION ( #157, #308 ) ;
#134 = APPROVAL ( #276, 'UNSPECIFIED' ) ;
#135 = CIRCLE ( 'NONE', #154, 2.049999999999992273 ) ;
#136 = ORIENTED_EDGE ( 'NONE', *, *, #101, .T. ) ;
#137 = VERTEX_POINT ( 'NONE', #320 ) ;
#138 = ORIENTED_EDGE ( 'NONE', *, *, #168, .F. ) ;
#139 = ORIENTED_EDGE ( 'NONE', *, *, #299, .F. ) ;
#140 = ADVANCED_FACE ( 'NONE', ( #93 ), #3, .F. ) ;
#141 = EDGE_LOOP ( 'NONE', ( #226, #88, #85 ) ) ;
#142 = DATE_AND_TIME ( #34, #284 ) ;
#143 = FACE_OUTER_BOUND ( 'NONE', #205, .T. ) ;
#144 = APPROVAL ( #222, 'UNSPECIFIED' ) ;
#145 = CARTESIAN_POINT ( 'NONE',  ( 0.0000000000000000000, 0.0000000000000000000, 0.0000000000000000000 ) ) ;
#146 = AXIS2_PLACEMENT_3D ( 'NONE', #74, #244, #109 ) ;
#147 = CYLINDRICAL_SURFACE ( 'NONE', #65, 2.049999999999996714 ) ;
#148 = ORIENTED_EDGE ( 'NONE', *, *, #28, .F. ) ;
#149 = APPROVAL_DATE_TIME ( #43, #144 ) ;
#150 = AXIS2_PLACEMENT_3D ( 'NONE', #77, #159, #317 ) ;
#151 = DIRECTION ( 'NONE',  ( 4.275831445896958607E-31, 1.000000000000000000, 1.224646799147353207E-16 ) ) ;
#152 = PRODUCT ( '42652', '42652', '', ( #127 ) ) ;
#153 = DESIGN_CONTEXT ( 'detailed design', #227, 'design' ) ;
#154 = AXIS2_PLACEMENT_3D ( 'NONE', #181, #326, #211 ) ;
#155 = AXIS2_PLACEMENT_3D ( 'NONE', #60, #118, #229 ) ;
#156 = ADVANCED_FACE ( 'NONE', ( #260 ), #328, .T. ) ;
#157 = PERSON ( 'UNSPECIFIED', 'UNSPECIFIED', 'UNSPECIFIED', ('UNSPECIFIED'), ('UNSPECIFIED'), ('UNSPECIFIED') ) ;
#158 = FACE_OUTER_BOUND ( 'NONE', #80, .T. ) ;
#159 = DIRECTION ( 'NONE',  ( -3.491481338843133355E-15, 1.224646799147353207E-16, -1.000000000000000000 ) ) ;
#160 = VECTOR ( 'NONE', #117, 1000.000000000000000 ) ;
#161 = DIRECTION ( 'NONE',  ( -3.491481338843133355E-15, 1.224646799147353207E-16, -1.000000000000000000 ) ) ;
#162 = DIRECTION ( 'NONE',  ( -3.491481338843133355E-15, 1.224646799147353207E-16, -1.000000000000000000 ) ) ;
#163 = ADVANCED_FACE ( 'NONE', ( #97 ), #179, .F. ) ;
#164 = DIRECTION ( 'NONE',  ( 3.491481338843133355E-15, -1.224646799147353207E-16, 1.000000000000000000 ) ) ;
#165 = VERTEX_POINT ( 'NONE', #275 ) ;
#166 = ORIENTED_EDGE ( 'NONE', *, *, #235, .F. ) ;
#167 = AXIS2_PLACEMENT_3D ( 'NONE', #87, #164, #273 ) ;
#168 = EDGE_CURVE ( 'NONE', #196, #102, #121, .T. ) ;
#169 = DATE_AND_TIME ( #201, #230 ) ;
#170 = CARTESIAN_POINT ( 'NONE',  ( 5.935518276033326704E-14, 1.537253777228396658E-32, 17.00000000000000000 ) ) ;
#171 = ORIENTED_EDGE ( 'NONE', *, *, #268, .T. ) ;
#172 = CARTESIAN_POINT ( 'NONE',  ( 4.300681959089974738E-15, -2.049999999999992273, 1.231764269006507595 ) ) ;
#173 = PRODUCT_DEFINITION_FORMATION_WITH_SPECIFIED_SOURCE ( 'ANY', '', #152, .NOT_KNOWN. ) ;
#174 = LINE ( 'NONE', #281, #228 ) ;
#175 = CARTESIAN_POINT ( 'NONE',  ( 2.510525938252061367E-16, -2.049999999999996714, -2.510525938252078623E-16 ) ) ;
#176 = ADVANCED_FACE ( 'NONE', ( #7 ), #311, .T. ) ;
#177 = DIRECTION ( 'NONE',  ( -3.491481338843133355E-15, 1.224646799147353207E-16, -1.000000000000000000 ) ) ;
#178 = DATE_AND_TIME ( #69, #72 ) ;
#179 = PLANE ( 'NONE',  #267 ) ;
#180 = VERTEX_POINT ( 'NONE', #30 ) ;
#181 = CARTESIAN_POINT ( 'NONE',  ( 4.300681959089975527E-15, -1.508476169342899336E-16, 1.231764269006507817 ) ) ;
#182 = PERSON_AND_ORGANIZATION ( #157, #308 ) ;
#183 = ORIENTED_EDGE ( 'NONE', *, *, #184, .F. ) ;
#184 = EDGE_CURVE ( 'NONE', #66, #137, #302, .T. ) ;
#185 = DIRECTION ( 'NONE',  ( 3.491481338843133355E-15, -1.224646799147353207E-16, 1.000000000000000000 ) ) ;
#186 = DIRECTION ( 'NONE',  ( 1.000000000000000000, 0.0000000000000000000, 0.0000000000000000000 ) ) ;
#187 = DIRECTION ( 'NONE',  ( -3.491481338843133355E-15, 1.224646799147353207E-16, -1.000000000000000000 ) ) ;
#188 = CIRCLE ( 'NONE', #146, 1.549999999999999156 ) ;
#189 = DIRECTION ( 'NONE',  ( 4.275831445896958607E-31, 1.000000000000000000, 1.224646799147353207E-16 ) ) ;
#190 = ORIENTED_EDGE ( 'NONE', *, *, #21, .T. ) ;
#191 = CARTESIAN_POINT ( 'NONE',  ( 8.765454464088752094E-31, 2.049999999999996714, 2.510525938252070241E-16 ) ) ;
#192 = CARTESIAN_POINT ( 'NONE',  ( 1.920314736363723472E-13, -6.735557395310442615E-15, 55.00000000000000000 ) ) ;
#193 = AXIS2_PLACEMENT_3D ( 'NONE', #327, #262, #321 ) ;
#194 = ADVANCED_FACE ( 'NONE', ( #103 ), #147, .T. ) ;
#195 = DIRECTION ( 'NONE',  ( -3.491481338843133355E-15, 1.224646799147353207E-16, -1.000000000000000000 ) ) ;
#196 = VERTEX_POINT ( 'NONE', #293 ) ;
#197 = DIRECTION ( 'NONE',  ( 4.275831445896958607E-31, 1.000000000000000000, 1.224646799147353207E-16 ) ) ;
#198 = EDGE_CURVE ( 'NONE', #331, #8, #174, .T. ) ;
#199 = APPLICATION_CONTEXT ( 'configuration controlled 3d designs of mechanical parts and assemblies' ) ;
#200 = CIRCLE ( 'NONE', #204, 2.049999999999992273 ) ;
#201 = CALENDAR_DATE ( 2021, 3, 9 ) ;
#202 = ORIENTED_EDGE ( 'NONE', *, *, #114, .T. ) ;
#203 = COORDINATED_UNIVERSAL_TIME_OFFSET ( 1, 0, .AHEAD. ) ;
#204 = AXIS2_PLACEMENT_3D ( 'NONE', #18, #177, #231 ) ;
#205 = EDGE_LOOP ( 'NONE', ( #295, #202, #12 ) ) ;
#206 = LINE ( 'NONE', #175, #318 ) ;
#207 = CC_DESIGN_DATE_AND_TIME_ASSIGNMENT ( #142, #122, ( #332 ) ) ;
#208 = CC_DESIGN_SECURITY_CLASSIFICATION ( #337, ( #173 ) ) ;
#209 = COORDINATED_UNIVERSAL_TIME_OFFSET ( 1, 0, .AHEAD. ) ;
#210 = DIRECTION ( 'NONE',  ( 4.275831445896959482E-31, 1.000000000000000000, 1.224646799147353207E-16 ) ) ;
#211 = DIRECTION ( 'NONE',  ( 3.757912086609254755E-31, 1.000000000000000000, 1.057758217059032675E-16 ) ) ;
#212 =( LENGTH_UNIT ( ) NAMED_UNIT ( * ) SI_UNIT ( .MILLI., .METRE. ) );
#213 = CC_DESIGN_DATE_AND_TIME_ASSIGNMENT ( #169, #76, ( #337 ) ) ;
#214 = CLOSED_SHELL ( 'NONE', ( #304, #194, #163, #156, #282, #140 ) ) ;
#215 = CIRCLE ( 'NONE', #257, 2.049999999999998934 ) ;
#216 = PERSON_AND_ORGANIZATION ( #157, #308 ) ;
#217 = FACE_OUTER_BOUND ( 'NONE', #245, .T. ) ;
#218 = CARTESIAN_POINT ( 'NONE',  ( 1.913790397255080953E-13, -1.550000000000005818, 55.00000000000000000 ) ) ;
#219 = CARTESIAN_POINT ( 'NONE',  ( 1.920314736363723472E-13, -6.735557395310442615E-15, 55.00000000000000000 ) ) ;
#220 = CARTESIAN_POINT ( 'NONE',  ( 1.922212938902401854E-13, -1.550000000000005818, 55.00000000000000000 ) ) ;
#221 = DIRECTION ( 'NONE',  ( 0.0000000000000000000, 0.0000000000000000000, 1.000000000000000000 ) ) ;
#222 = APPROVAL_STATUS ( 'not_yet_approved' ) ;
#223 = DIRECTION ( 'NONE',  ( 0.0000000000000000000, 1.000000000000000000, 0.0000000000000000000 ) ) ;
#224 = ORIENTED_EDGE ( 'NONE', *, *, #111, .T. ) ;
#225 = APPROVAL ( #67, 'UNSPECIFIED' ) ;
#226 = ORIENTED_EDGE ( 'NONE', *, *, #114, .F. ) ;
#227 = APPLICATION_CONTEXT ( 'configuration controlled 3d designs of mechanical parts and assemblies' ) ;
#228 = VECTOR ( 'NONE', #187, 1000.000000000000000 ) ;
#229 = DIRECTION ( 'NONE',  ( -3.757912086609254755E-31, -1.000000000000000000, -1.057758217059032675E-16 ) ) ;
#230 = LOCAL_TIME ( 9, 22, 27.00000000000000000, #112 ) ;
#231 = DIRECTION ( 'NONE',  ( 3.757912086609254755E-31, 1.000000000000000000, 1.057758217059032675E-16 ) ) ;
#232 = ADVANCED_FACE ( 'NONE', ( #158 ), #47, .T. ) ;
#233 =( GEOMETRIC_REPRESENTATION_CONTEXT ( 3 ) GLOBAL_UNCERTAINTY_ASSIGNED_CONTEXT ( ( #259 ) ) GLOBAL_UNIT_ASSIGNED_CONTEXT ( ( #212, #23, #105 ) ) REPRESENTATION_CONTEXT ( 'NONE', 'WORKASPACE' ) );
#234 = CC_DESIGN_APPROVAL ( #134, ( #332 ) ) ;
#235 = EDGE_CURVE ( 'NONE', #196, #286, #283, .T. ) ;
#236 = APPROVAL_ROLE ( '' ) ;
#237 = DIRECTION ( 'NONE',  ( -3.491481338843133355E-15, 1.224646799147353207E-16, -1.000000000000000000 ) ) ;
#238 = DIRECTION ( 'NONE',  ( -2.468850131082249961E-15, 0.7071067811865521247, -0.7071067811865430208 ) ) ;
#239 = AXIS2_PLACEMENT_3D ( 'NONE', #130, #185, #108 ) ;
#240 = VECTOR ( 'NONE', #62, 999.9999999999998863 ) ;
#241 = DIRECTION ( 'NONE',  ( 0.0000000000000000000, 1.000000000000000000, 0.0000000000000000000 ) ) ;
#242 = COORDINATED_UNIVERSAL_TIME_OFFSET ( 1, 0, .AHEAD. ) ;
#243 = EDGE_LOOP ( 'NONE', ( #115, #171, #110, #261 ) ) ;
#244 = DIRECTION ( 'NONE',  ( -3.491481338843133355E-15, 1.224646799147353207E-16, -1.000000000000000000 ) ) ;
#245 = EDGE_LOOP ( 'NONE', ( #37, #253, #264, #104 ) ) ;
#246 = LINE ( 'NONE', #220, #270 ) ;
#247 = DIRECTION ( 'NONE',  ( -3.491481338843133355E-15, 1.224646799147353207E-16, -1.000000000000000000 ) ) ;
#248 = APPLICATION_PROTOCOL_DEFINITION ( 'international standard', 'config_control_design', 1994, #199 ) ;
#249 = EDGE_CURVE ( 'NONE', #31, #331, #324, .T. ) ;
#250 = DIRECTION ( 'NONE',  ( -3.491481338843133355E-15, 1.224646799147353207E-16, -1.000000000000000000 ) ) ;
#251 = VECTOR ( 'NONE', #41, 1000.000000000000000 ) ;
#252 = PRODUCT_RELATED_PRODUCT_CATEGORY ( 'detail', '', ( #152 ) ) ;
#253 = ORIENTED_EDGE ( 'NONE', *, *, #198, .T. ) ;
#254 = PERSON_AND_ORGANIZATION_ROLE ( 'design_owner' ) ;
#255 = ORIENTED_EDGE ( 'NONE', *, *, #268, .F. ) ;
#256 = DIRECTION ( 'NONE',  ( 0.0000000000000000000, 1.000000000000000000, 0.0000000000000000000 ) ) ;
#257 = AXIS2_PLACEMENT_3D ( 'NONE', #309, #195, #58 ) ;
#258 = COORDINATED_UNIVERSAL_TIME_OFFSET ( 1, 0, .AHEAD. ) ;
#259 = UNCERTAINTY_MEASURE_WITH_UNIT (LENGTH_MEASURE( 1.000000000000000082E-05 ), #212, 'distance_accuracy_value', 'NONE');
#260 = FACE_OUTER_BOUND ( 'NONE', #312, .T. ) ;
#261 = ORIENTED_EDGE ( 'NONE', *, *, #33, .F. ) ;
#262 = DIRECTION ( 'NONE',  ( -3.491481338843133355E-15, 1.224646799147353207E-16, -1.000000000000000000 ) ) ;
#263 = CC_DESIGN_PERSON_AND_ORGANIZATION_ASSIGNMENT ( #314, #254, ( #152 ) ) ;
#264 = ORIENTED_EDGE ( 'NONE', *, *, #68, .F. ) ;
#265 = ORIENTED_EDGE ( 'NONE', *, *, #15, .T. ) ;
#266 = PERSON_AND_ORGANIZATION ( #157, #308 ) ;
#267 = AXIS2_PLACEMENT_3D ( 'NONE', #170, #325, #40 ) ;
#268 = EDGE_CURVE ( 'NONE', #102, #196, #188, .T. ) ;
#269 = APPLICATION_PROTOCOL_DEFINITION ( 'international standard', 'config_control_design', 1994, #227 ) ;
#270 = VECTOR ( 'NONE', #301, 1000.000000000000000 ) ;
#271 = ADVANCED_FACE ( 'NONE', ( #217 ), #316, .T. ) ;
#272 = AXIS2_PLACEMENT_3D ( 'NONE', #90, #83, #197 ) ;
#273 = DIRECTION ( 'NONE',  ( -4.275831445896958607E-31, -1.000000000000000000, -1.224646799147353207E-16 ) ) ;
#274 = AXIS2_PLACEMENT_3D ( 'NONE', #51, #221, #186 ) ;
#275 = CARTESIAN_POINT ( 'NONE',  ( 0.0000000000000000000, 0.0000000000000000000, 0.0000000000000000000 ) ) ;
#276 = APPROVAL_STATUS ( 'not_yet_approved' ) ;
#277 = DIRECTION ( 'NONE',  ( -3.491481338843133355E-15, 1.224646799147353207E-16, -1.000000000000000000 ) ) ;
#278 = CARTESIAN_POINT ( 'NONE',  ( 0.0000000000000000000, 0.0000000000000000000, 0.0000000000000000000 ) ) ;
#279 = DIRECTION ( 'NONE',  ( 0.0000000000000000000, 1.000000000000000000, 0.0000000000000000000 ) ) ;
#280 = PERSON_AND_ORGANIZATION_ROLE ( 'creator' ) ;
#281 = CARTESIAN_POINT ( 'NONE',  ( 2.510525938252057915E-16, -2.049999999999993605, -2.510525938252075172E-16 ) ) ;
#282 = ADVANCED_FACE ( 'NONE', ( #336 ), #16, .T. ) ;
#283 = LINE ( 'NONE', #54, #297 ) ;
#284 = LOCAL_TIME ( 9, 22, 27.00000000000000000, #258 ) ;
#285 = MANIFOLD_SOLID_BREP ( 'Corps-Déplacer/Copier1[2]', #291 ) ;
#286 = VERTEX_POINT ( 'NONE', #81 ) ;
#287 = DIRECTION ( 'NONE',  ( -3.491481338843133355E-15, 1.224646799147353207E-16, -1.000000000000000000 ) ) ;
#288 = AXIS2_PLACEMENT_3D ( 'NONE', #323, #296, #279 ) ;
#289 = CIRCLE ( 'NONE', #38, 2.049999999999994493 ) ;
#290 = EDGE_CURVE ( 'NONE', #286, #66, #4, .T. ) ;
#291 = CLOSED_SHELL ( 'NONE', ( #271, #128, #6, #232, #176 ) ) ;
#292 = EDGE_CURVE ( 'NONE', #286, #180, #215, .T. ) ;
#293 = CARTESIAN_POINT ( 'NONE',  ( 1.920314736363723472E-13, 1.549999999999992273, 55.00000000000000000 ) ) ;
#294 = VECTOR ( 'NONE', #14, 1000.000000000000000 ) ;
#295 = ORIENTED_EDGE ( 'NONE', *, *, #96, .F. ) ;
#296 = DIRECTION ( 'NONE',  ( -3.491481338843133355E-15, 1.224646799147353207E-16, -1.000000000000000000 ) ) ;
#297 = VECTOR ( 'NONE', #238, 999.9999999999998863 ) ;
#298 = DIRECTION ( 'NONE',  ( -3.491481338843133355E-15, 1.224646799147353207E-16, -1.000000000000000000 ) ) ;
#299 = EDGE_CURVE ( 'NONE', #331, #31, #289, .T. ) ;
#300 = CARTESIAN_POINT ( 'NONE',  ( 4.300681959089974738E-15, -2.049999999999992273, 1.231764269006507595 ) ) ;
#301 = DIRECTION ( 'NONE',  ( -2.382254525458700509E-15, -0.7071067811865519026, -0.7071067811865431318 ) ) ;
#302 = CIRCLE ( 'NONE', #193, 2.049999999999994493 ) ;
#303 = APPROVAL_ROLE ( '' ) ;
#304 = ADVANCED_FACE ( 'NONE', ( #131 ), #99, .T. ) ;
#305 = CARTESIAN_POINT ( 'NONE',  ( 0.0000000000000000000, 0.0000000000000000000, 0.0000000000000000000 ) ) ;
#306 = EDGE_LOOP ( 'NONE', ( #125, #136, #183, #25 ) ) ;
#307 = ORIENTED_EDGE ( 'NONE', *, *, #249, .F. ) ;
#308 = ORGANIZATION ( 'UNSPECIFIED', 'UNSPECIFIED', '' ) ;
#309 = CARTESIAN_POINT ( 'NONE',  ( 1.902857329669507868E-13, -6.674325055353075830E-15, 54.50000000000000711 ) ) ;
#310 = LOCAL_TIME ( 9, 22, 27.00000000000000000, #209 ) ;
#311 = PLANE ( 'NONE',  #167 ) ;
#312 = EDGE_LOOP ( 'NONE', ( #329, #59, #2, #126 ) ) ;
#313 = CC_DESIGN_PERSON_AND_ORGANIZATION_ASSIGNMENT ( #91, #39, ( #332 ) ) ;
#314 = PERSON_AND_ORGANIZATION ( #157, #308 ) ;
#315 = PERSON_AND_ORGANIZATION_ROLE ( 'classification_officer' ) ;
#316 = CYLINDRICAL_SURFACE ( 'NONE', #272, 2.049999999999993605 ) ;
#317 = DIRECTION ( 'NONE',  ( 0.0000000000000000000, 1.000000000000000000, 0.0000000000000000000 ) ) ;
#318 = VECTOR ( 'NONE', #277, 1000.000000000000000 ) ;
#319 = CC_DESIGN_PERSON_AND_ORGANIZATION_ASSIGNMENT ( #330, #315, ( #337 ) ) ;
#320 = CARTESIAN_POINT ( 'NONE',  ( 1.250715104574671885E-13, -2.049999999999996714, 17.00000000000000000 ) ) ;
#321 = DIRECTION ( 'NONE',  ( 0.0000000000000000000, 1.000000000000000000, 0.0000000000000000000 ) ) ;
#322 = CALENDAR_DATE ( 2021, 3, 9 ) ;
#323 = CARTESIAN_POINT ( 'NONE',  ( 1.902857329669507868E-13, -6.674325055353075830E-15, 54.50000000000000711 ) ) ;
#324 = CIRCLE ( 'NONE', #70, 2.049999999999994493 ) ;
#325 = DIRECTION ( 'NONE',  ( 3.491481338843133355E-15, -1.224646799147353207E-16, 1.000000000000000000 ) ) ;
#326 = DIRECTION ( 'NONE',  ( -3.491481338843133355E-15, 1.224646799147353207E-16, -1.000000000000000000 ) ) ;
#327 = CARTESIAN_POINT ( 'NONE',  ( 5.935518276033326704E-14, -2.081899558550500280E-15, 17.00000000000000000 ) ) ;
#328 = CYLINDRICAL_SURFACE ( 'NONE', #55, 2.049999999999996714 ) ;
#329 = ORIENTED_EDGE ( 'NONE', *, *, #101, .F. ) ;
#330 = PERSON_AND_ORGANIZATION ( #157, #308 ) ;
#331 = VERTEX_POINT ( 'NONE', #52 ) ;
#332 = PRODUCT_DEFINITION ( 'UNKNOWN', '', #173, #153 ) ;
#333 = AXIS2_PLACEMENT_3D ( 'NONE', #120, #287, #256 ) ;
#334 = PERSON_AND_ORGANIZATION_ROLE ( 'design_supplier' ) ;
#335 = LINE ( 'NONE', #26, #294 ) ;
#336 = FACE_OUTER_BOUND ( 'NONE', #243, .T. ) ;
#337 = SECURITY_CLASSIFICATION ( '', '', #46 ) ;
ENDSEC;
END-ISO-10303-21;
