ISO-10303-21;
HEADER;
FILE_DESCRIPTION (( 'STEP AP203' ),
    '1' );
FILE_NAME ('4262.step',
    '2021-12-06T12:59:42',
    ( '' ),
    ( '' ),
    'SwSTEP 2.0',
    'SolidWorks 2019',
    '' );
FILE_SCHEMA (( 'CONFIG_CONTROL_DESIGN' ));
ENDSEC;

DATA;
#1 = ADVANCED_FACE ( 'NONE', ( #64, #7 ), #106, .F. ) ;
#2 = DATE_TIME_ROLE ( 'classification_date' ) ;
#3 = COORDINATED_UNIVERSAL_TIME_OFFSET ( 1, 0, .AHEAD. ) ;
#4 = DIRECTION ( 'NONE',  ( -3.491481338843133355E-15, 8.817456953860942303E-16, -1.000000000000000000 ) ) ;
#5 = ORIENTED_EDGE ( 'NONE', *, *, #113, .T. ) ;
#6 = DIRECTION ( 'NONE',  ( -3.491481338843133355E-15, 8.817456953860942303E-16, -1.000000000000000000 ) ) ;
#7 = FACE_OUTER_BOUND ( 'NONE', #138, .T. ) ;
#8 = CARTESIAN_POINT ( 'NONE',  ( 5.473822126268816683E-45, 15.00000000000000000, 0.0000000000000000000 ) ) ;
#9 = PRODUCT_DEFINITION_FORMATION_WITH_SPECIFIED_SOURCE ( 'ANY', '', #50, .NOT_KNOWN. ) ;
#10 = APPLICATION_PROTOCOL_DEFINITION ( 'international standard', 'config_control_design', 1994, #163 ) ;
#11 = DATE_AND_TIME ( #57, #112 ) ;
#12 = CC_DESIGN_PERSON_AND_ORGANIZATION_ASSIGNMENT ( #152, #59, ( #39 ) ) ;
#13 = VERTEX_POINT ( 'NONE', #86 ) ;
#14 = APPROVAL_PERSON_ORGANIZATION ( #155, #147, #101 ) ;
#15 = EDGE_LOOP ( 'NONE', ( #41 ) ) ;
#16 = CARTESIAN_POINT ( 'NONE',  ( -4.617897961568714524E-29, 1.166213206997860231E-29, -1.322618543079141336E-14 ) ) ;
#17 = EDGE_LOOP ( 'NONE', ( #109 ) ) ;
#18 = DIRECTION ( 'NONE',  ( 3.078598641045810057E-30, 1.000000000000000000, 8.817456953860942303E-16 ) ) ;
#19 = DIRECTION ( 'NONE',  ( 3.081487911019576664E-30, 1.000000000000000000, 8.809142651444721554E-16 ) ) ;
#20 = PERSON_AND_ORGANIZATION ( #48, #166 ) ;
#21 = ADVANCED_BREP_SHAPE_REPRESENTATION ( '4262', ( #135, #63 ), #103 ) ;
#22 = APPROVAL_STATUS ( 'not_yet_approved' ) ;
#23 = SECURITY_CLASSIFICATION_LEVEL ( 'unclassified' ) ;
#24 = PERSON_AND_ORGANIZATION_ROLE ( 'classification_officer' ) ;
#25 = CIRCLE ( 'NONE', #67, 15.00000000000000000 ) ;
#26 = APPROVAL_DATE_TIME ( #132, #164 ) ;
#27 = DIRECTION ( 'NONE',  ( -3.491481338843133355E-15, 8.817456953860942303E-16, -1.000000000000000000 ) ) ;
#28 = FACE_BOUND ( 'NONE', #134, .T. ) ;
#29 = PRODUCT_DEFINITION_SHAPE ( 'NONE', 'NONE',  #39 ) ;
#30 = ORIENTED_EDGE ( 'NONE', *, *, #75, .T. ) ;
#31 = DIRECTION ( 'NONE',  ( 3.081487911019577365E-30, 1.000000000000000000, 8.818177669548769068E-16 ) ) ;
#32 = CARTESIAN_POINT ( 'NONE',  ( -1.693229252575195531E-29, 4.000000000000000000, -4.849601324623518020E-15 ) ) ;
#33 = APPROVAL_ROLE ( '' ) ;
#34 = DATE_AND_TIME ( #37, #56 ) ;
#35 = PERSON_AND_ORGANIZATION ( #48, #166 ) ;
#36 = APPROVAL ( #115, 'UNSPECIFIED' ) ;
#37 = CALENDAR_DATE ( 2021, 6, 12 ) ;
#38 = PERSON_AND_ORGANIZATION ( #48, #166 ) ;
#39 = PRODUCT_DEFINITION ( 'UNKNOWN', '', #9, #159 ) ;
#40 = CARTESIAN_POINT ( 'NONE',  ( 0.0000000000000000000, 0.0000000000000000000, 0.0000000000000000000 ) ) ;
#41 = ORIENTED_EDGE ( 'NONE', *, *, #75, .F. ) ;
#42 = ORIENTED_EDGE ( 'NONE', *, *, #158, .T. ) ;
#43 = VERTEX_POINT ( 'NONE', #72 ) ;
#44 = PERSON_AND_ORGANIZATION_ROLE ( 'design_owner' ) ;
#45 = PERSON_AND_ORGANIZATION_ROLE ( 'creator' ) ;
#46 =( LENGTH_UNIT ( ) NAMED_UNIT ( * ) SI_UNIT ( .MILLI., .METRE. ) );
#47 = CALENDAR_DATE ( 2021, 6, 12 ) ;
#48 = PERSON ( 'UNSPECIFIED', 'UNSPECIFIED', 'UNSPECIFIED', ('UNSPECIFIED'), ('UNSPECIFIED'), ('UNSPECIFIED') ) ;
#49 = DIRECTION ( 'NONE',  ( 3.078598641045810057E-30, 1.000000000000000000, 8.817456953860942303E-16 ) ) ;
#50 = PRODUCT ( '4262', '4262', '', ( #71 ) ) ;
#51 = AXIS2_PLACEMENT_3D ( 'NONE', #65, #123, #84 ) ;
#52 = APPROVAL_PERSON_ORGANIZATION ( #35, #36, #142 ) ;
#53 = DIRECTION ( 'NONE',  ( 3.078598641045810057E-30, 1.000000000000000000, 8.817456953860942303E-16 ) ) ;
#54 = EDGE_LOOP ( 'NONE', ( #42 ) ) ;
#55 = VERTEX_POINT ( 'NONE', #111 ) ;
#56 = LOCAL_TIME ( 13, 59, 42.00000000000000000, #58 ) ;
#57 = CALENDAR_DATE ( 2021, 6, 12 ) ;
#58 = COORDINATED_UNIVERSAL_TIME_OFFSET ( 1, 0, .AHEAD. ) ;
#59 = PERSON_AND_ORGANIZATION_ROLE ( 'creator' ) ;
#60 = DATE_AND_TIME ( #130, #104 ) ;
#61 = CIRCLE ( 'NONE', #143, 4.000000000000000888 ) ;
#62 = ADVANCED_FACE ( 'NONE', ( #162, #110 ), #150, .T. ) ;
#63 = AXIS2_PLACEMENT_3D ( 'NONE', #102, #70, #114 ) ;
#64 = FACE_OUTER_BOUND ( 'NONE', #17, .T. ) ;
#65 = CARTESIAN_POINT ( 'NONE',  ( 0.0000000000000000000, 0.0000000000000000000, 0.0000000000000000000 ) ) ;
#66 = DIRECTION ( 'NONE',  ( -3.078598641045810057E-30, -1.000000000000000000, -8.817456953860942303E-16 ) ) ;
#67 = AXIS2_PLACEMENT_3D ( 'NONE', #68, #124, #31 ) ;
#68 = CARTESIAN_POINT ( 'NONE',  ( 8.728703347107371905E-16, -2.204364238465118972E-16, 0.2499999999999867883 ) ) ;
#69 = VERTEX_POINT ( 'NONE', #8 ) ;
#70 = DIRECTION ( 'NONE',  ( 0.0000000000000000000, 0.0000000000000000000, 1.000000000000000000 ) ) ;
#71 = MECHANICAL_CONTEXT ( 'NONE', #156, 'mechanical' ) ;
#72 = CARTESIAN_POINT ( 'NONE',  ( 1.368455531567204171E-45, 4.000000000000000000, 0.0000000000000000000 ) ) ;
#73 = PERSON_AND_ORGANIZATION ( #48, #166 ) ;
#74 = COORDINATED_UNIVERSAL_TIME_OFFSET ( 1, 0, .AHEAD. ) ;
#75 = EDGE_CURVE ( 'NONE', #69, #69, #141, .T. ) ;
#76 = CC_DESIGN_APPROVAL ( #36, ( #9 ) ) ;
#77 = CC_DESIGN_APPROVAL ( #164, ( #117 ) ) ;
#78 = CARTESIAN_POINT ( 'NONE',  ( -1.231439456418323883E-29, 3.109901885327627165E-30, -3.526982781544376921E-15 ) ) ;
#79 = CLOSED_SHELL ( 'NONE', ( #105, #62, #131, #1 ) ) ;
#80 = CC_DESIGN_PERSON_AND_ORGANIZATION_ASSIGNMENT ( #73, #44, ( #50 ) ) ;
#81 = EDGE_LOOP ( 'NONE', ( #125 ) ) ;
#82 = CARTESIAN_POINT ( 'NONE',  ( 8.728703347107663783E-16, 4.000000000000000888, 0.2499999999999951705 ) ) ;
#83 = CC_DESIGN_SECURITY_CLASSIFICATION ( #117, ( #9 ) ) ;
#84 = DIRECTION ( 'NONE',  ( 3.078598641045810057E-30, 1.000000000000000000, 8.817456953860942303E-16 ) ) ;
#85 = DIRECTION ( 'NONE',  ( -3.491481338843133355E-15, 8.817456953860942303E-16, -1.000000000000000000 ) ) ;
#86 = CARTESIAN_POINT ( 'NONE',  ( 8.728703347107833388E-16, 4.000000000000000888, 0.2500000000000000000 ) ) ;
#87 = COORDINATED_UNIVERSAL_TIME_OFFSET ( 1, 0, .AHEAD. ) ;
#88 = PERSON_AND_ORGANIZATION_ROLE ( 'design_supplier' ) ;
#89 = DATE_TIME_ROLE ( 'creation_date' ) ;
#90 = PRODUCT_RELATED_PRODUCT_CATEGORY ( 'detail', '', ( #50 ) ) ;
#91 = PERSON_AND_ORGANIZATION ( #48, #166 ) ;
#92 = AXIS2_PLACEMENT_3D ( 'NONE', #32, #27, #139 ) ;
#93 = AXIS2_PLACEMENT_3D ( 'NONE', #16, #146, #18 ) ;
#94 = PLANE ( 'NONE',  #92 ) ;
#95 = ORIENTED_EDGE ( 'NONE', *, *, #144, .F. ) ;
#96 = ORIENTED_EDGE ( 'NONE', *, *, #158, .F. ) ;
#97 = AXIS2_PLACEMENT_3D ( 'NONE', #40, #4, #49 ) ;
#98 = PERSON_AND_ORGANIZATION ( #48, #166 ) ;
#99 = CC_DESIGN_DATE_AND_TIME_ASSIGNMENT ( #60, #2, ( #117 ) ) ;
#100 = COORDINATED_UNIVERSAL_TIME_OFFSET ( 1, 0, .AHEAD. ) ;
#101 = APPROVAL_ROLE ( '' ) ;
#102 = CARTESIAN_POINT ( 'NONE',  ( 0.0000000000000000000, 0.0000000000000000000, 0.0000000000000000000 ) ) ;
#103 =( GEOMETRIC_REPRESENTATION_CONTEXT ( 3 ) GLOBAL_UNCERTAINTY_ASSIGNED_CONTEXT ( ( #122 ) ) GLOBAL_UNIT_ASSIGNED_CONTEXT ( ( #46, #168, #153 ) ) REPRESENTATION_CONTEXT ( 'NONE', 'WORKASPACE' ) );
#104 = LOCAL_TIME ( 13, 59, 42.00000000000000000, #74 ) ;
#105 = ADVANCED_FACE ( 'NONE', ( #149, #28 ), #94, .T. ) ;
#106 = CYLINDRICAL_SURFACE ( 'NONE', #51, 4.000000000000000000 ) ;
#107 = FACE_OUTER_BOUND ( 'NONE', #81, .T. ) ;
#108 = LOCAL_TIME ( 13, 59, 42.00000000000000000, #3 ) ;
#109 = ORIENTED_EDGE ( 'NONE', *, *, #144, .T. ) ;
#110 = FACE_OUTER_BOUND ( 'NONE', #15, .T. ) ;
#111 = CARTESIAN_POINT ( 'NONE',  ( 8.728703347107833388E-16, 15.00000000000000000, 0.2500000000000000000 ) ) ;
#112 = LOCAL_TIME ( 13, 59, 42.00000000000000000, #100 ) ;
#113 = EDGE_CURVE ( 'NONE', #55, #55, #25, .T. ) ;
#114 = DIRECTION ( 'NONE',  ( 1.000000000000000000, 0.0000000000000000000, 0.0000000000000000000 ) ) ;
#115 = APPROVAL_STATUS ( 'not_yet_approved' ) ;
#116 = CC_DESIGN_PERSON_AND_ORGANIZATION_ASSIGNMENT ( #91, #24, ( #117 ) ) ;
#117 = SECURITY_CLASSIFICATION ( '', '', #23 ) ;
#118 = APPROVAL_DATE_TIME ( #129, #36 ) ;
#119 = CIRCLE ( 'NONE', #121, 4.000000000000000000 ) ;
#120 = SHAPE_DEFINITION_REPRESENTATION ( #29, #21 ) ;
#121 = AXIS2_PLACEMENT_3D ( 'NONE', #78, #6, #53 ) ;
#122 = UNCERTAINTY_MEASURE_WITH_UNIT (LENGTH_MEASURE( 1.000000000000000082E-05 ), #46, 'distance_accuracy_value', 'NONE');
#123 = DIRECTION ( 'NONE',  ( -3.491481338843133355E-15, 8.817456953860942303E-16, -1.000000000000000000 ) ) ;
#124 = DIRECTION ( 'NONE',  ( -3.491481338843133355E-15, 8.817456953860942303E-16, -1.000000000000000000 ) ) ;
#125 = ORIENTED_EDGE ( 'NONE', *, *, #113, .F. ) ;
#126 = CC_DESIGN_PERSON_AND_ORGANIZATION_ASSIGNMENT ( #38, #88, ( #9 ) ) ;
#127 = APPLICATION_PROTOCOL_DEFINITION ( 'international standard', 'config_control_design', 1994, #156 ) ;
#128 = AXIS2_PLACEMENT_3D ( 'NONE', #82, #137, #66 ) ;
#129 = DATE_AND_TIME ( #140, #154 ) ;
#130 = CALENDAR_DATE ( 2021, 6, 12 ) ;
#131 = ADVANCED_FACE ( 'NONE', ( #165, #107 ), #136, .T. ) ;
#132 = DATE_AND_TIME ( #47, #108 ) ;
#133 = CC_DESIGN_APPROVAL ( #147, ( #39 ) ) ;
#134 = EDGE_LOOP ( 'NONE', ( #95 ) ) ;
#135 = MANIFOLD_SOLID_BREP ( 'Corps-Déplacer/Copier1', #79 ) ;
#136 = PLANE ( 'NONE',  #128 ) ;
#137 = DIRECTION ( 'NONE',  ( 3.491481338843133355E-15, -8.817456953860942303E-16, 1.000000000000000000 ) ) ;
#138 = EDGE_LOOP ( 'NONE', ( #96 ) ) ;
#139 = DIRECTION ( 'NONE',  ( 3.078598641045810057E-30, 1.000000000000000000, 8.817456953860942303E-16 ) ) ;
#140 = CALENDAR_DATE ( 2021, 6, 12 ) ;
#141 = CIRCLE ( 'NONE', #93, 15.00000000000000000 ) ;
#142 = APPROVAL_ROLE ( '' ) ;
#143 = AXIS2_PLACEMENT_3D ( 'NONE', #167, #85, #19 ) ;
#144 = EDGE_CURVE ( 'NONE', #43, #43, #119, .T. ) ;
#145 = CC_DESIGN_PERSON_AND_ORGANIZATION_ASSIGNMENT ( #20, #45, ( #9 ) ) ;
#146 = DIRECTION ( 'NONE',  ( -3.491481338843133355E-15, 8.817456953860942303E-16, -1.000000000000000000 ) ) ;
#147 = APPROVAL ( #22, 'UNSPECIFIED' ) ;
#148 = EDGE_LOOP ( 'NONE', ( #30 ) ) ;
#149 = FACE_OUTER_BOUND ( 'NONE', #148, .T. ) ;
#150 = CYLINDRICAL_SURFACE ( 'NONE', #97, 15.00000000000000000 ) ;
#151 = APPROVAL_STATUS ( 'not_yet_approved' ) ;
#152 = PERSON_AND_ORGANIZATION ( #48, #166 ) ;
#153 =( NAMED_UNIT ( * ) SI_UNIT ( $, .STERADIAN. ) SOLID_ANGLE_UNIT ( ) );
#154 = LOCAL_TIME ( 13, 59, 42.00000000000000000, #87 ) ;
#155 = PERSON_AND_ORGANIZATION ( #48, #166 ) ;
#156 = APPLICATION_CONTEXT ( 'configuration controlled 3d designs of mechanical parts and assemblies' ) ;
#157 = CC_DESIGN_DATE_AND_TIME_ASSIGNMENT ( #34, #89, ( #39 ) ) ;
#158 = EDGE_CURVE ( 'NONE', #13, #13, #61, .T. ) ;
#159 = DESIGN_CONTEXT ( 'detailed design', #163, 'design' ) ;
#160 = EDGE_LOOP ( 'NONE', ( #5 ) ) ;
#161 = APPROVAL_PERSON_ORGANIZATION ( #98, #164, #33 ) ;
#162 = FACE_OUTER_BOUND ( 'NONE', #160, .T. ) ;
#163 = APPLICATION_CONTEXT ( 'configuration controlled 3d designs of mechanical parts and assemblies' ) ;
#164 = APPROVAL ( #151, 'UNSPECIFIED' ) ;
#165 = FACE_BOUND ( 'NONE', #54, .T. ) ;
#166 = ORGANIZATION ( 'UNSPECIFIED', 'UNSPECIFIED', '' ) ;
#167 = CARTESIAN_POINT ( 'NONE',  ( 8.728703347107710129E-16, -2.204364238465204761E-16, 0.2499999999999964750 ) ) ;
#168 =( NAMED_UNIT ( * ) PLANE_ANGLE_UNIT ( ) SI_UNIT ( $, .RADIAN. ) );
#169 = APPROVAL_DATE_TIME ( #11, #147 ) ;
ENDSEC;
END-ISO-10303-21;
