ISO-10303-21;
HEADER;
FILE_DESCRIPTION (( 'STEP AP203' ),
    '1' );
FILE_NAME ('42598.step',
    '2024-04-04T13:40:59',
    ( '' ),
    ( '' ),
    'SwSTEP 2.0',
    'SolidWorks 2022',
    '' );
FILE_SCHEMA (( 'CONFIG_CONTROL_DESIGN' ));
ENDSEC;

DATA;
#1 = VERTEX_POINT ( 'NONE', #106 ) ;
#2 = APPROVAL_DATE_TIME ( #250, #114 ) ;
#3 = EDGE_LOOP ( 'NONE', ( #233, #317, #132, #273 ) ) ;
#4 = ADVANCED_FACE ( 'NONE', ( #260 ), #9, .T. ) ;
#5 = CALENDAR_DATE ( 2024, 4, 4 ) ;
#6 = APPROVAL_DATE_TIME ( #64, #278 ) ;
#7 = CARTESIAN_POINT ( 'NONE',  ( 2.199633243471174140E-13, -7.715274834628325378E-15, 63.00000000000000000 ) ) ;
#8 = CIRCLE ( 'NONE', #212, 3.999999999999995559 ) ;
#9 = CYLINDRICAL_SURFACE ( 'NONE', #87, 3.949999999999998845 ) ;
#10 = CC_DESIGN_DATE_AND_TIME_ASSIGNMENT ( #150, #33, ( #23 ) ) ;
#11 = DIRECTION ( 'NONE',  ( 4.275831445896958607E-31, 1.000000000000000000, 1.224646799147353207E-16 ) ) ;
#12 = APPROVAL_ROLE ( '' ) ;
#13 = CARTESIAN_POINT ( 'NONE',  ( 1.433597113943219960E-13, -4.000000000000006217, 62.20000000000000995 ) ) ;
#14 = CARTESIAN_POINT ( 'NONE',  ( 0.000000000000000000, 0.000000000000000000, 0.000000000000000000 ) ) ;
#15 = ORIENTED_EDGE ( 'NONE', *, *, #202, .T. ) ;
#16 = FACE_OUTER_BOUND ( 'NONE', #133, .T. ) ;
#17 = CIRCLE ( 'NONE', #218, 3.950000000000000178 ) ;
#18 = VERTEX_POINT ( 'NONE', #13 ) ;
#19 = LINE ( 'NONE', #107, #30 ) ;
#20 = EDGE_LOOP ( 'NONE', ( #210, #208, #265, #322 ) ) ;
#21 = CARTESIAN_POINT ( 'NONE',  ( 3.950000000000000178, 0.000000000000000000, -1.379135128843037675E-14 ) ) ;
#22 = CARTESIAN_POINT ( 'NONE',  ( 2.190076046592731920E-13, -3.200000000000022382, 63.00000000000000000 ) ) ;
#23 = SECURITY_CLASSIFICATION ( '', '', #117 ) ;
#24 = ADVANCED_FACE ( 'NONE', ( #235 ), #32, .T. ) ;
#25 = FACE_OUTER_BOUND ( 'NONE', #104, .T. ) ;
#26 = CARTESIAN_POINT ( 'NONE',  ( 2.171701392760429326E-13, 3.999999999999990674, 62.20000000000000995 ) ) ;
#27 = ADVANCED_FACE ( 'NONE', ( #52 ), #83, .T. ) ;
#28 = CARTESIAN_POINT ( 'NONE',  ( 4.898587196589394093E-16, -3.999999999999998224, -4.898587196589427620E-16 ) ) ;
#29 = PERSON_AND_ORGANIZATION_ROLE ( 'creator' ) ;
#30 = VECTOR ( 'NONE', #207, 1000.000000000000000 ) ;
#31 = ADVANCED_FACE ( 'NONE', ( #301 ), #142, .T. ) ;
#32 = CONICAL_SURFACE ( 'NONE', #298, 3.950000000000000178, 0.3450620389298154622 ) ;
#33 = DATE_TIME_ROLE ( 'classification_date' ) ;
#34 = CC_DESIGN_DATE_AND_TIME_ASSIGNMENT ( #264, #349, ( #53 ) ) ;
#35 = APPROVAL_ROLE ( '' ) ;
#36 = ORIENTED_EDGE ( 'NONE', *, *, #340, .T. ) ;
#37 = DIRECTION ( 'NONE',  ( 1.000000000000000000, 0.000000000000000000, -3.491481338843133355E-15 ) ) ;
#38 = AXIS2_PLACEMENT_3D ( 'NONE', #318, #74, #130 ) ;
#39 = PERSON_AND_ORGANIZATION ( #194, #305 ) ;
#40 = ORIENTED_EDGE ( 'NONE', *, *, #321, .F. ) ;
#41 = DIRECTION ( 'NONE',  ( -4.275831445896958607E-31, -1.000000000000000000, -1.224646799147353207E-16 ) ) ;
#42 = ORIENTED_EDGE ( 'NONE', *, *, #89, .F. ) ;
#43 = FACE_OUTER_BOUND ( 'NONE', #350, .T. ) ;
#44 = ORIENTED_EDGE ( 'NONE', *, *, #164, .F. ) ;
#45 = CARTESIAN_POINT ( 'NONE',  ( 6.856956607328324143E-14, 3.999999999999993339, 19.63910427085458110 ) ) ;
#46 = APPROVAL ( #163, 'UNSPECIFIED' ) ;
#47 = AXIS2_PLACEMENT_3D ( 'NONE', #354, #149, #77 ) ;
#48 = ORIENTED_EDGE ( 'NONE', *, *, #269, .T. ) ;
#49 = DIRECTION ( 'NONE',  ( 3.327098416510791948E-15, 0.3382550599108784528, 0.9410544694355836848 ) ) ;
#50 = FACE_OUTER_BOUND ( 'NONE', #3, .T. ) ;
#51 = PRODUCT_DEFINITION_SHAPE ( 'NONE', 'NONE',  #53 ) ;
#52 = FACE_OUTER_BOUND ( 'NONE', #20, .T. ) ;
#53 = PRODUCT_DEFINITION ( 'UNKNOWN', '', #272, #312 ) ;
#54 = DIRECTION ( 'NONE',  ( -3.491481338843133355E-15, 1.224646799147345319E-16, -1.000000000000000000 ) ) ;
#55 = AXIS2_PLACEMENT_3D ( 'NONE', #98, #201, #41 ) ;
#56 = APPLICATION_CONTEXT ( 'configuration controlled 3d designs of mechanical parts and assemblies' ) ;
#57 = MANIFOLD_SOLID_BREP ( 'Corps-Déplacer/Copier1[2]', #175 ) ;
#58 = CARTESIAN_POINT ( 'NONE',  ( 6.881352319302324693E-14, 3.949999999999997957, 19.50000000000000000 ) ) ;
#59 = DIRECTION ( 'NONE',  ( 0.000000000000000000, 0.000000000000000000, 1.000000000000000000 ) ) ;
#60 = EDGE_CURVE ( 'NONE', #69, #101, #253, .T. ) ;
#61 = CIRCLE ( 'NONE', #261, 3.999999999999995559 ) ;
#62 = EDGE_CURVE ( 'NONE', #66, #18, #110, .T. ) ;
#63 = CIRCLE ( 'NONE', #357, 3.999999999999998224 ) ;
#64 = DATE_AND_TIME ( #338, #85 ) ;
#65 = ADVANCED_FACE ( 'NONE', ( #213 ), #304, .T. ) ;
#66 = VERTEX_POINT ( 'NONE', #22 ) ;
#67 = FACE_OUTER_BOUND ( 'NONE', #178, .T. ) ;
#68 =( NAMED_UNIT ( * ) SI_UNIT ( $, .STERADIAN. ) SOLID_ANGLE_UNIT ( ) );
#69 = VERTEX_POINT ( 'NONE', #358 ) ;
#70 = DIRECTION ( 'NONE',  ( 0.000000000000000000, 1.000000000000000000, 0.000000000000000000 ) ) ;
#71 = CLOSED_SHELL ( 'NONE', ( #94, #24, #27, #76, #243, #191, #65, #31 ) ) ;
#72 = VECTOR ( 'NONE', #359, 1000.000000000000000 ) ;
#73 = ORIENTED_EDGE ( 'NONE', *, *, #256, .T. ) ;
#74 = DIRECTION ( 'NONE',  ( -3.491481338843133355E-15, 1.224646799147345319E-16, -1.000000000000000000 ) ) ;
#75 = EDGE_LOOP ( 'NONE', ( #205, #319, #297, #287 ) ) ;
#76 = ADVANCED_FACE ( 'NONE', ( #214 ), #331, .T. ) ;
#77 = DIRECTION ( 'NONE',  ( 0.000000000000000000, 1.000000000000000000, 0.000000000000000000 ) ) ;
#78 = EDGE_LOOP ( 'NONE', ( #40, #231, #151, #36 ) ) ;
#79 = PLANE ( 'NONE',  #226 ) ;
#80 = AXIS2_PLACEMENT_3D ( 'NONE', #186, #332, #220 ) ;
#81 = CARTESIAN_POINT ( 'NONE',  ( 6.808388610744110674E-14, -2.388061258337338939E-15, 19.50000000000000000 ) ) ;
#82 = PRODUCT ( '42598', '42598', '', ( #230 ) ) ;
#83 = CYLINDRICAL_SURFACE ( 'NONE', #121, 3.999999999999998224 ) ;
#84 = DIRECTION ( 'NONE',  ( 1.000000000000000000, 0.000000000000000000, -3.491481338843133355E-15 ) ) ;
#85 = LOCAL_TIME ( 15, 40, 59.00000000000000000, #195 ) ;
#86 = PLANE ( 'NONE',  #188 ) ;
#87 = AXIS2_PLACEMENT_3D ( 'NONE', #123, #99, #174 ) ;
#88 = CC_DESIGN_APPROVAL ( #114, ( #53 ) ) ;
#89 = EDGE_CURVE ( 'NONE', #18, #352, #303, .T. ) ;
#90 = CARTESIAN_POINT ( 'NONE',  ( 6.808388610744110674E-14, -3.950000000000002842, 19.50000000000000000 ) ) ;
#91 = PERSON_AND_ORGANIZATION_ROLE ( 'design_supplier' ) ;
#92 = PERSON_AND_ORGANIZATION ( #194, #305 ) ;
#93 = ORIENTED_EDGE ( 'NONE', *, *, #134, .T. ) ;
#94 = ADVANCED_FACE ( 'NONE', ( #50 ), #342, .T. ) ;
#95 = VECTOR ( 'NONE', #161, 1000.000000000000000 ) ;
#96 = PERSON_AND_ORGANIZATION_ROLE ( 'creator' ) ;
#97 = ORIENTED_EDGE ( 'NONE', *, *, #256, .F. ) ;
#98 = CARTESIAN_POINT ( 'NONE',  ( 2.199633243471174140E-13, -7.715274834628325378E-15, 63.00000000000000000 ) ) ;
#99 = DIRECTION ( 'NONE',  ( 3.491481338843133355E-15, -0.000000000000000000, 1.000000000000000000 ) ) ;
#100 = CARTESIAN_POINT ( 'NONE',  ( 6.856762159310431184E-14, 3.949999999999997957, 19.50000000000000000 ) ) ;
#101 = VERTEX_POINT ( 'NONE', #190 ) ;
#102 = CC_DESIGN_APPROVAL ( #46, ( #272 ) ) ;
#103 = EDGE_CURVE ( 'NONE', #1, #353, #355, .T. ) ;
#104 = EDGE_LOOP ( 'NONE', ( #238, #44 ) ) ;
#105 = DIRECTION ( 'NONE',  ( -3.491481338843133355E-15, 1.224646799147353207E-16, -1.000000000000000000 ) ) ;
#106 = CARTESIAN_POINT ( 'NONE',  ( 1.428698526746630807E-13, 3.999999999999990674, 62.20000000000000995 ) ) ;
#107 = CARTESIAN_POINT ( 'NONE',  ( 3.950000000000066347, 0.000000000000000000, 19.49999999999998579 ) ) ;
#108 = CYLINDRICAL_SURFACE ( 'NONE', #314, 3.949999999999998845 ) ;
#109 = CC_DESIGN_PERSON_AND_ORGANIZATION_ASSIGNMENT ( #125, #96, ( #53 ) ) ;
#110 = LINE ( 'NONE', #111, #136 ) ;
#111 = CARTESIAN_POINT ( 'NONE',  ( 2.176599979957018732E-13, -4.000000000000006217, 62.20000000000000995 ) ) ;
#112 = DIRECTION ( 'NONE',  ( -2.382254525458723780E-15, -0.7071067811865454633, -0.7071067811865495711 ) ) ;
#113 = DIRECTION ( 'NONE',  ( 3.491481338843133355E-15, -0.000000000000000000, 1.000000000000000000 ) ) ;
#114 = APPROVAL ( #286, 'UNSPECIFIED' ) ;
#115 = AXIS2_PLACEMENT_3D ( 'NONE', #229, #239, #346 ) ;
#116 = ORIENTED_EDGE ( 'NONE', *, *, #300, .T. ) ;
#117 = SECURITY_CLASSIFICATION_LEVEL ( 'unclassified' ) ;
#118 = CARTESIAN_POINT ( 'NONE',  ( 0.000000000000000000, 0.000000000000000000, 0.000000000000000000 ) ) ;
#119 = SHAPE_DEFINITION_REPRESENTATION ( #51, #215 ) ;
#120 = CYLINDRICAL_SURFACE ( 'NONE', #192, 3.999999999999998224 ) ;
#121 = AXIS2_PLACEMENT_3D ( 'NONE', #137, #216, #279 ) ;
#122 = CALENDAR_DATE ( 2024, 4, 4 ) ;
#123 = CARTESIAN_POINT ( 'NONE',  ( 6.808388610744110674E-14, 0.000000000000000000, 19.50000000000000000 ) ) ;
#124 = DIRECTION ( 'NONE',  ( 0.000000000000000000, 1.000000000000000000, 0.000000000000000000 ) ) ;
#125 = PERSON_AND_ORGANIZATION ( #194, #305 ) ;
#126 = ORIENTED_EDGE ( 'NONE', *, *, #249, .T. ) ;
#127 = DIRECTION ( 'NONE',  ( -3.491481338843133355E-15, 1.224646799147353207E-16, -1.000000000000000000 ) ) ;
#128 = ADVANCED_FACE ( 'NONE', ( #25 ), #86, .F. ) ;
#129 = VERTEX_POINT ( 'NONE', #306 ) ;
#130 = DIRECTION ( 'NONE',  ( 1.953992523340275827E-14, -1.000000000000000000, 0.000000000000000000 ) ) ;
#131 = VECTOR ( 'NONE', #240, 1000.000000000000000 ) ;
#132 = ORIENTED_EDGE ( 'NONE', *, *, #307, .F. ) ;
#133 = EDGE_LOOP ( 'NONE', ( #42, #73, #341, #251 ) ) ;
#134 = EDGE_CURVE ( 'NONE', #270, #101, #185, .T. ) ;
#135 = DIRECTION ( 'NONE',  ( 0.000000000000000000, -1.000000000000000000, 0.000000000000000000 ) ) ;
#136 = VECTOR ( 'NONE', #112, 1000.000000000000000 ) ;
#137 = CARTESIAN_POINT ( 'NONE',  ( 0.000000000000000000, 0.000000000000000000, 0.000000000000000000 ) ) ;
#138 = LOCAL_TIME ( 15, 40, 59.00000000000000000, #169 ) ;
#139 = DIRECTION ( 'NONE',  ( 3.491481338843133355E-15, -0.000000000000000000, 1.000000000000000000 ) ) ;
#140 = EDGE_CURVE ( 'NONE', #129, #1, #277, .T. ) ;
#141 = DIRECTION ( 'NONE',  ( -2.468850131082272049E-15, 0.7071067811865456854, -0.7071067811865493491 ) ) ;
#142 = CONICAL_SURFACE ( 'NONE', #291, 3.999999999999998224, 0.7853981633974456145 ) ;
#143 = ADVANCED_FACE ( 'NONE', ( #162 ), #108, .T. ) ;
#144 = ORIENTED_EDGE ( 'NONE', *, *, #249, .F. ) ;
#145 = PERSON_AND_ORGANIZATION ( #194, #305 ) ;
#146 = APPROVAL_DATE_TIME ( #280, #46 ) ;
#147 = COORDINATED_UNIVERSAL_TIME_OFFSET ( 1, 0, .AHEAD. ) ;
#148 = VERTEX_POINT ( 'NONE', #21 ) ;
#149 = DIRECTION ( 'NONE',  ( -3.491481338843133355E-15, 1.224646799147353207E-16, -1.000000000000000000 ) ) ;
#150 = DATE_AND_TIME ( #344, #228 ) ;
#151 = ORIENTED_EDGE ( 'NONE', *, *, #183, .T. ) ;
#152 = DIRECTION ( 'NONE',  ( -3.491481338843133355E-15, 1.224646799147353207E-16, -1.000000000000000000 ) ) ;
#153 = VERTEX_POINT ( 'NONE', #58 ) ;
#154 = DIRECTION ( 'NONE',  ( 3.491481338843133355E-15, -0.000000000000000000, 1.000000000000000000 ) ) ;
#155 = ORIENTED_EDGE ( 'NONE', *, *, #60, .T. ) ;
#156 = CIRCLE ( 'NONE', #283, 3.950000000000000178 ) ;
#157 = DIRECTION ( 'NONE',  ( 0.000000000000000000, 1.000000000000000000, 0.000000000000000000 ) ) ;
#158 = DIRECTION ( 'NONE',  ( 0.000000000000000000, -1.000000000000000000, 0.000000000000000000 ) ) ;
#159 = VECTOR ( 'NONE', #141, 1000.000000000000000 ) ;
#160 = DIRECTION ( 'NONE',  ( 0.000000000000000000, 1.000000000000000000, 0.000000000000000000 ) ) ;
#161 = DIRECTION ( 'NONE',  ( 3.491481338843133355E-15, -0.000000000000000000, 1.000000000000000000 ) ) ;
#162 = FACE_OUTER_BOUND ( 'NONE', #203, .T. ) ;
#163 = APPROVAL_STATUS ( 'not_yet_approved' ) ;
#164 = EDGE_CURVE ( 'NONE', #270, #148, #156, .T. ) ;
#165 = DIRECTION ( 'NONE',  ( 3.491481338843133355E-15, -0.000000000000000000, 1.000000000000000000 ) ) ;
#166 = VECTOR ( 'NONE', #49, 1000.000000000000227 ) ;
#167 = APPLICATION_PROTOCOL_DEFINITION ( 'international standard', 'config_control_design', 1994, #56 ) ;
#168 = AXIS2_PLACEMENT_3D ( 'NONE', #294, #154, #37 ) ;
#169 = COORDINATED_UNIVERSAL_TIME_OFFSET ( 1, 0, .AHEAD. ) ;
#170 = EDGE_LOOP ( 'NONE', ( #267, #193, #325, #144 ) ) ;
#171 = MANIFOLD_SOLID_BREP ( 'Corps-Déplacer/Copier1[1]', #71 ) ;
#172 = CARTESIAN_POINT ( 'NONE',  ( 6.808388610744110674E-14, -2.388061258337338939E-15, 19.50000000000000000 ) ) ;
#173 = CC_DESIGN_PERSON_AND_ORGANIZATION_ASSIGNMENT ( #255, #91, ( #272 ) ) ;
#174 = DIRECTION ( 'NONE',  ( 1.000000000000000000, 0.000000000000000000, -3.513364001978344456E-15 ) ) ;
#175 = CLOSED_SHELL ( 'NONE', ( #143, #4, #316, #128 ) ) ;
#176 = AXIS2_PLACEMENT_3D ( 'NONE', #81, #302, #158 ) ;
#177 = CARTESIAN_POINT ( 'NONE',  ( 6.856956607328324143E-14, -2.405096618342317464E-15, 19.63910427085458110 ) ) ;
#178 = EDGE_LOOP ( 'NONE', ( #155, #126 ) ) ;
#179 = ORIENTED_EDGE ( 'NONE', *, *, #62, .F. ) ;
#180 = DIRECTION ( 'NONE',  ( -3.491481338843133355E-15, 0.000000000000000000, -1.000000000000000000 ) ) ;
#181 = ORIENTED_EDGE ( 'NONE', *, *, #60, .F. ) ;
#182 = CARTESIAN_POINT ( 'NONE',  ( -3.950000000000000178, 4.837354856632087459E-16, 1.379135128843037833E-14 ) ) ;
#183 = EDGE_CURVE ( 'NONE', #290, #352, #311, .T. ) ;
#184 = CIRCLE ( 'NONE', #198, 3.949999999999997957 ) ;
#185 = LINE ( 'NONE', #308, #95 ) ;
#186 = CARTESIAN_POINT ( 'NONE',  ( 6.808388610744110674E-14, 3.949999999999997957, 19.50000000000000000 ) ) ;
#187 = PRODUCT_RELATED_PRODUCT_CATEGORY ( 'detail', '', ( #82 ) ) ;
#188 = AXIS2_PLACEMENT_3D ( 'NONE', #274, #139, #84 ) ;
#189 =( GEOMETRIC_REPRESENTATION_CONTEXT ( 3 ) GLOBAL_UNCERTAINTY_ASSIGNED_CONTEXT ( ( #221 ) ) GLOBAL_UNIT_ASSIGNED_CONTEXT ( ( #360, #217, #68 ) ) REPRESENTATION_CONTEXT ( 'NONE', 'WORKASPACE' ) );
#190 = CARTESIAN_POINT ( 'NONE',  ( -3.949999999999930012, 4.837354856632042099E-16, 19.50000000000001421 ) ) ;
#191 = ADVANCED_FACE ( 'NONE', ( #16 ), #120, .T. ) ;
#192 = AXIS2_PLACEMENT_3D ( 'NONE', #14, #105, #11 ) ;
#193 = ORIENTED_EDGE ( 'NONE', *, *, #164, .T. ) ;
#194 = PERSON ( 'UNSPECIFIED', 'UNSPECIFIED', 'UNSPECIFIED', ('UNSPECIFIED'), ('UNSPECIFIED'), ('UNSPECIFIED') ) ;
#195 = COORDINATED_UNIVERSAL_TIME_OFFSET ( 1, 0, .AHEAD. ) ;
#196 = EDGE_CURVE ( 'NONE', #148, #270, #334, .T. ) ;
#197 = COORDINATED_UNIVERSAL_TIME_OFFSET ( 1, 0, .AHEAD. ) ;
#198 = AXIS2_PLACEMENT_3D ( 'NONE', #327, #324, #258 ) ;
#199 = APPROVAL_STATUS ( 'not_yet_approved' ) ;
#200 = EDGE_LOOP ( 'NONE', ( #15, #116 ) ) ;
#201 = DIRECTION ( 'NONE',  ( 3.491481338843133355E-15, -1.224646799147353207E-16, 1.000000000000000000 ) ) ;
#202 = EDGE_CURVE ( 'NONE', #290, #153, #17, .T. ) ;
#203 = EDGE_LOOP ( 'NONE', ( #345, #93, #181, #293 ) ) ;
#204 = CARTESIAN_POINT ( 'NONE',  ( 6.856956607328324143E-14, -2.405096618342317464E-15, 19.63910427085458110 ) ) ;
#205 = ORIENTED_EDGE ( 'NONE', *, *, #300, .F. ) ;
#206 = CIRCLE ( 'NONE', #281, 3.200000000000014388 ) ;
#207 = DIRECTION ( 'NONE',  ( 3.491481338843133355E-15, -0.000000000000000000, 1.000000000000000000 ) ) ;
#208 = ORIENTED_EDGE ( 'NONE', *, *, #89, .T. ) ;
#209 = DIRECTION ( 'NONE',  ( 0.000000000000000000, -1.000000000000000000, 0.000000000000000000 ) ) ;
#210 = ORIENTED_EDGE ( 'NONE', *, *, #307, .T. ) ;
#211 = CARTESIAN_POINT ( 'NONE',  ( 2.171701392760429326E-13, -7.617303090696538521E-15, 62.20000000000000995 ) ) ;
#212 = AXIS2_PLACEMENT_3D ( 'NONE', #204, #268, #70 ) ;
#213 = FACE_OUTER_BOUND ( 'NONE', #78, .T. ) ;
#214 = FACE_OUTER_BOUND ( 'NONE', #200, .T. ) ;
#215 = ADVANCED_BREP_SHAPE_REPRESENTATION ( '42598', ( #171, #57, #219 ), #189 ) ;
#216 = DIRECTION ( 'NONE',  ( -3.491481338843133355E-15, 1.224646799147353207E-16, -1.000000000000000000 ) ) ;
#217 =( NAMED_UNIT ( * ) PLANE_ANGLE_UNIT ( ) SI_UNIT ( $, .RADIAN. ) );
#218 = AXIS2_PLACEMENT_3D ( 'NONE', #172, #152, #124 ) ;
#219 = AXIS2_PLACEMENT_3D ( 'NONE', #118, #59, #289 ) ;
#220 = DIRECTION ( 'NONE',  ( 4.275831445896958607E-31, 1.000000000000000000, 1.224646799147353207E-16 ) ) ;
#221 = UNCERTAINTY_MEASURE_WITH_UNIT (LENGTH_MEASURE( 1.000000000000000082E-05 ), #360, 'distance_accuracy_value', 'NONE');
#222 = APPROVAL_PERSON_ORGANIZATION ( #145, #46, #35 ) ;
#223 = APPLICATION_CONTEXT ( 'configuration controlled 3d designs of mechanical parts and assemblies' ) ;
#224 = COORDINATED_UNIVERSAL_TIME_OFFSET ( 1, 0, .AHEAD. ) ;
#225 = ORIENTED_EDGE ( 'NONE', *, *, #269, .F. ) ;
#226 = AXIS2_PLACEMENT_3D ( 'NONE', #266, #180, #263 ) ;
#227 = EDGE_CURVE ( 'NONE', #66, #129, #206, .T. ) ;
#228 = LOCAL_TIME ( 15, 40, 59.00000000000000000, #224 ) ;
#229 = CARTESIAN_POINT ( 'NONE',  ( 2.199633243471174140E-13, -7.715274834628325378E-15, 63.00000000000000000 ) ) ;
#230 = MECHANICAL_CONTEXT ( 'NONE', #56, 'mechanical' ) ;
#231 = ORIENTED_EDGE ( 'NONE', *, *, #202, .F. ) ;
#232 = PLANE ( 'NONE',  #55 ) ;
#233 = ORIENTED_EDGE ( 'NONE', *, *, #227, .F. ) ;
#234 = DIRECTION ( 'NONE',  ( 0.000000000000000000, 1.000000000000000000, 0.000000000000000000 ) ) ;
#235 = FACE_OUTER_BOUND ( 'NONE', #75, .T. ) ;
#236 = VECTOR ( 'NONE', #333, 1000.000000000000000 ) ;
#237 = CC_DESIGN_APPROVAL ( #278, ( #23 ) ) ;
#238 = ORIENTED_EDGE ( 'NONE', *, *, #196, .F. ) ;
#239 = DIRECTION ( 'NONE',  ( 3.491481338843133355E-15, -1.224646799147353207E-16, 1.000000000000000000 ) ) ;
#240 = DIRECTION ( 'NONE',  ( 3.285674118869266155E-15, -0.3382550599108786749, 0.9410544694355836848 ) ) ;
#241 = CARTESIAN_POINT ( 'NONE',  ( 2.171701392760429326E-13, -7.617303090696538521E-15, 62.20000000000000995 ) ) ;
#242 = CARTESIAN_POINT ( 'NONE',  ( 6.808388610744110674E-14, 0.000000000000000000, 19.50000000000000000 ) ) ;
#243 = ADVANCED_FACE ( 'NONE', ( #43 ), #232, .T. ) ;
#244 = DIRECTION ( 'NONE',  ( 1.000000000000000000, 0.000000000000000000, -3.513364001978345245E-15 ) ) ;
#245 = CARTESIAN_POINT ( 'NONE',  ( 2.171701392760429326E-13, -7.617303090696538521E-15, 62.20000000000000995 ) ) ;
#246 = CARTESIAN_POINT ( 'NONE',  ( 6.808388610744110674E-14, 0.000000000000000000, 19.50000000000000000 ) ) ;
#247 = CIRCLE ( 'NONE', #38, 3.999999999999998224 ) ;
#248 = APPROVAL_PERSON_ORGANIZATION ( #39, #114, #12 ) ;
#249 = EDGE_CURVE ( 'NONE', #101, #69, #184, .T. ) ;
#250 = DATE_AND_TIME ( #5, #330 ) ;
#251 = ORIENTED_EDGE ( 'NONE', *, *, #340, .F. ) ;
#252 = CC_DESIGN_PERSON_AND_ORGANIZATION_ASSIGNMENT ( #92, #313, ( #82 ) ) ;
#253 = CIRCLE ( 'NONE', #329, 3.949999999999997957 ) ;
#254 = EDGE_LOOP ( 'NONE', ( #179, #225, #295, #97 ) ) ;
#255 = PERSON_AND_ORGANIZATION ( #194, #305 ) ;
#256 = EDGE_CURVE ( 'NONE', #18, #1, #63, .T. ) ;
#257 = PERSON_AND_ORGANIZATION ( #194, #305 ) ;
#258 = DIRECTION ( 'NONE',  ( 1.000000000000000000, 0.000000000000000000, -3.513364001978345245E-15 ) ) ;
#259 = APPROVAL_ROLE ( '' ) ;
#260 = FACE_OUTER_BOUND ( 'NONE', #170, .T. ) ;
#261 = AXIS2_PLACEMENT_3D ( 'NONE', #177, #127, #234 ) ;
#262 = LOCAL_TIME ( 15, 40, 59.00000000000000000, #147 ) ;
#263 = DIRECTION ( 'NONE',  ( -1.000000000000000000, 0.000000000000000000, 3.491481338843133355E-15 ) ) ;
#264 = DATE_AND_TIME ( #284, #262 ) ;
#265 = ORIENTED_EDGE ( 'NONE', *, *, #326, .F. ) ;
#266 = CARTESIAN_POINT ( 'NONE',  ( 6.808388610744110674E-14, 3.949999999999997957, 19.50000000000000000 ) ) ;
#267 = ORIENTED_EDGE ( 'NONE', *, *, #134, .F. ) ;
#268 = DIRECTION ( 'NONE',  ( -3.491481338843133355E-15, 1.224646799147353207E-16, -1.000000000000000000 ) ) ;
#269 = EDGE_CURVE ( 'NONE', #129, #66, #271, .T. ) ;
#270 = VERTEX_POINT ( 'NONE', #182 ) ;
#271 = CIRCLE ( 'NONE', #115, 3.200000000000014388 ) ;
#272 = PRODUCT_DEFINITION_FORMATION_WITH_SPECIFIED_SOURCE ( 'ANY', '', #82, .NOT_KNOWN. ) ;
#273 = ORIENTED_EDGE ( 'NONE', *, *, #140, .F. ) ;
#274 = CARTESIAN_POINT ( 'NONE',  ( 2.137915722948479303E-31, 3.950000000000000178, 6.123233995736767268E-17 ) ) ;
#275 = DIRECTION ( 'NONE',  ( -3.491481338843133355E-15, 1.224646799147345319E-16, -1.000000000000000000 ) ) ;
#276 = CARTESIAN_POINT ( 'NONE',  ( 1.710332578358782742E-30, 3.999999999999998224, 4.898587196589410857E-16 ) ) ;
#277 = LINE ( 'NONE', #26, #159 ) ;
#278 = APPROVAL ( #199, 'UNSPECIFIED' ) ;
#279 = DIRECTION ( 'NONE',  ( 4.275831445896958607E-31, 1.000000000000000000, 1.224646799147353207E-16 ) ) ;
#280 = DATE_AND_TIME ( #122, #138 ) ;
#281 = AXIS2_PLACEMENT_3D ( 'NONE', #7, #288, #209 ) ;
#282 = CC_DESIGN_PERSON_AND_ORGANIZATION_ASSIGNMENT ( #257, #347, ( #23 ) ) ;
#283 = AXIS2_PLACEMENT_3D ( 'NONE', #363, #165, #337 ) ;
#284 = CALENDAR_DATE ( 2024, 4, 4 ) ;
#285 = PERSON_AND_ORGANIZATION ( #194, #305 ) ;
#286 = APPROVAL_STATUS ( 'not_yet_approved' ) ;
#287 = ORIENTED_EDGE ( 'NONE', *, *, #183, .F. ) ;
#288 = DIRECTION ( 'NONE',  ( 3.491481338843133355E-15, -1.224646799147353207E-16, 1.000000000000000000 ) ) ;
#289 = DIRECTION ( 'NONE',  ( 1.000000000000000000, 0.000000000000000000, 0.000000000000000000 ) ) ;
#290 = VERTEX_POINT ( 'NONE', #292 ) ;
#291 = AXIS2_PLACEMENT_3D ( 'NONE', #245, #275, #157 ) ;
#292 = CARTESIAN_POINT ( 'NONE',  ( 6.832672609036218040E-14, -3.950000000000002842, 19.50000000000000000 ) ) ;
#293 = ORIENTED_EDGE ( 'NONE', *, *, #309, .F. ) ;
#294 = CARTESIAN_POINT ( 'NONE',  ( 0.000000000000000000, 0.000000000000000000, 0.000000000000000000 ) ) ;
#295 = ORIENTED_EDGE ( 'NONE', *, *, #140, .T. ) ;
#296 = CARTESIAN_POINT ( 'NONE',  ( 1.433597113943219960E-13, -3.999999999999998224, 19.63910427085458110 ) ) ;
#297 = ORIENTED_EDGE ( 'NONE', *, *, #326, .T. ) ;
#298 = AXIS2_PLACEMENT_3D ( 'NONE', #356, #335, #135 ) ;
#299 = LINE ( 'NONE', #100, #166 ) ;
#300 = EDGE_CURVE ( 'NONE', #153, #290, #362, .T. ) ;
#301 = FACE_OUTER_BOUND ( 'NONE', #254, .T. ) ;
#302 = DIRECTION ( 'NONE',  ( 3.491481338843133355E-15, -1.224646799147353207E-16, 1.000000000000000000 ) ) ;
#303 = LINE ( 'NONE', #28, #72 ) ;
#304 = CONICAL_SURFACE ( 'NONE', #176, 3.950000000000000178, 0.3450620389298154622 ) ;
#305 = ORGANIZATION ( 'UNSPECIFIED', 'UNSPECIFIED', '' ) ;
#306 = CARTESIAN_POINT ( 'NONE',  ( 2.185667318115801607E-13, 3.200000000000006839, 63.00000000000000000 ) ) ;
#307 = EDGE_CURVE ( 'NONE', #1, #18, #247, .T. ) ;
#308 = CARTESIAN_POINT ( 'NONE',  ( -3.949999999999930900, 4.837354856632043085E-16, 19.50000000000001421 ) ) ;
#309 = EDGE_CURVE ( 'NONE', #148, #69, #19, .T. ) ;
#310 = APPROVAL_PERSON_ORGANIZATION ( #315, #278, #259 ) ;
#311 = LINE ( 'NONE', #90, #131 ) ;
#312 = DESIGN_CONTEXT ( 'detailed design', #223, 'design' ) ;
#313 = PERSON_AND_ORGANIZATION_ROLE ( 'design_owner' ) ;
#314 = AXIS2_PLACEMENT_3D ( 'NONE', #246, #361, #328 ) ;
#315 = PERSON_AND_ORGANIZATION ( #194, #305 ) ;
#316 = ADVANCED_FACE ( 'NONE', ( #67 ), #79, .F. ) ;
#317 = ORIENTED_EDGE ( 'NONE', *, *, #62, .T. ) ;
#318 = CARTESIAN_POINT ( 'NONE',  ( 2.171701392760429326E-13, -7.617303090696538521E-15, 62.20000000000000995 ) ) ;
#319 = ORIENTED_EDGE ( 'NONE', *, *, #321, .T. ) ;
#320 = DIRECTION ( 'NONE',  ( -1.865174681370262988E-14, -1.000000000000000000, 0.000000000000000000 ) ) ;
#321 = EDGE_CURVE ( 'NONE', #153, #353, #299, .T. ) ;
#322 = ORIENTED_EDGE ( 'NONE', *, *, #103, .F. ) ;
#323 = ORIENTED_EDGE ( 'NONE', *, *, #227, .T. ) ;
#324 = DIRECTION ( 'NONE',  ( 3.491481338843133355E-15, -0.000000000000000000, 1.000000000000000000 ) ) ;
#325 = ORIENTED_EDGE ( 'NONE', *, *, #309, .T. ) ;
#326 = EDGE_CURVE ( 'NONE', #353, #352, #8, .T. ) ;
#327 = CARTESIAN_POINT ( 'NONE',  ( 6.808388610744110674E-14, 0.000000000000000000, 19.50000000000000000 ) ) ;
#328 = DIRECTION ( 'NONE',  ( 1.000000000000000000, 0.000000000000000000, -3.513364001978344456E-15 ) ) ;
#329 = AXIS2_PLACEMENT_3D ( 'NONE', #242, #113, #244 ) ;
#330 = LOCAL_TIME ( 15, 40, 59.00000000000000000, #197 ) ;
#331 = PLANE ( 'NONE',  #80 ) ;
#332 = DIRECTION ( 'NONE',  ( -3.491481338843133355E-15, 1.224646799147353207E-16, -1.000000000000000000 ) ) ;
#333 = DIRECTION ( 'NONE',  ( -3.491481338843133355E-15, 1.224646799147353207E-16, -1.000000000000000000 ) ) ;
#334 = CIRCLE ( 'NONE', #168, 3.950000000000000178 ) ;
#335 = DIRECTION ( 'NONE',  ( 3.491481338843133355E-15, -1.224646799147353207E-16, 1.000000000000000000 ) ) ;
#336 = CC_DESIGN_PERSON_AND_ORGANIZATION_ASSIGNMENT ( #285, #29, ( #272 ) ) ;
#337 = DIRECTION ( 'NONE',  ( 1.000000000000000000, 0.000000000000000000, -3.491481338843133355E-15 ) ) ;
#338 = CALENDAR_DATE ( 2024, 4, 4 ) ;
#339 = APPLICATION_PROTOCOL_DEFINITION ( 'international standard', 'config_control_design', 1994, #223 ) ;
#340 = EDGE_CURVE ( 'NONE', #352, #353, #61, .T. ) ;
#341 = ORIENTED_EDGE ( 'NONE', *, *, #103, .T. ) ;
#342 = CONICAL_SURFACE ( 'NONE', #351, 3.999999999999998224, 0.7853981633974456145 ) ;
#343 = CC_DESIGN_SECURITY_CLASSIFICATION ( #23, ( #272 ) ) ;
#344 = CALENDAR_DATE ( 2024, 4, 4 ) ;
#345 = ORIENTED_EDGE ( 'NONE', *, *, #196, .T. ) ;
#346 = DIRECTION ( 'NONE',  ( 0.000000000000000000, -1.000000000000000000, 0.000000000000000000 ) ) ;
#347 = PERSON_AND_ORGANIZATION_ROLE ( 'classification_officer' ) ;
#348 = DIRECTION ( 'NONE',  ( -3.491481338843133355E-15, 1.224646799147345319E-16, -1.000000000000000000 ) ) ;
#349 = DATE_TIME_ROLE ( 'creation_date' ) ;
#350 = EDGE_LOOP ( 'NONE', ( #48, #323 ) ) ;
#351 = AXIS2_PLACEMENT_3D ( 'NONE', #241, #54, #160 ) ;
#352 = VERTEX_POINT ( 'NONE', #296 ) ;
#353 = VERTEX_POINT ( 'NONE', #45 ) ;
#354 = CARTESIAN_POINT ( 'NONE',  ( 6.808388610744110674E-14, -2.388061258337338939E-15, 19.50000000000000000 ) ) ;
#355 = LINE ( 'NONE', #276, #236 ) ;
#356 = CARTESIAN_POINT ( 'NONE',  ( 6.808388610744110674E-14, -2.388061258337338939E-15, 19.50000000000000000 ) ) ;
#357 = AXIS2_PLACEMENT_3D ( 'NONE', #211, #348, #320 ) ;
#358 = CARTESIAN_POINT ( 'NONE',  ( 3.950000000000065459, 0.000000000000000000, 19.49999999999998579 ) ) ;
#359 = DIRECTION ( 'NONE',  ( -3.491481338843133355E-15, 1.224646799147353207E-16, -1.000000000000000000 ) ) ;
#360 =( LENGTH_UNIT ( ) NAMED_UNIT ( * ) SI_UNIT ( .MILLI., .METRE. ) );
#361 = DIRECTION ( 'NONE',  ( 3.491481338843133355E-15, -0.000000000000000000, 1.000000000000000000 ) ) ;
#362 = CIRCLE ( 'NONE', #47, 3.950000000000000178 ) ;
#363 = CARTESIAN_POINT ( 'NONE',  ( 0.000000000000000000, 0.000000000000000000, 0.000000000000000000 ) ) ;
ENDSEC;
END-ISO-10303-21;
