ISO-10303-21;
HEADER;
FILE_DESCRIPTION (( 'STEP AP203' ),
    '1' );
FILE_NAME ('42597.step',
    '2024-04-04T13:40:58',
    ( '' ),
    ( '' ),
    'SwSTEP 2.0',
    'SolidWorks 2022',
    '' );
FILE_SCHEMA (( 'CONFIG_CONTROL_DESIGN' ));
ENDSEC;

DATA;
#1 = LINE ( 'NONE', #341, #179 ) ;
#2 = CARTESIAN_POINT ( 'NONE',  ( 1.969195475107526708E-13, -6.907007947191070402E-15, 56.39999999999998437 ) ) ;
#3 = AXIS2_PLACEMENT_3D ( 'NONE', #269, #112, #307 ) ;
#4 =( GEOMETRIC_REPRESENTATION_CONTEXT ( 3 ) GLOBAL_UNCERTAINTY_ASSIGNED_CONTEXT ( ( #71 ) ) GLOBAL_UNIT_ASSIGNED_CONTEXT ( ( #260, #150, #127 ) ) REPRESENTATION_CONTEXT ( 'NONE', 'WORKASPACE' ) );
#5 = DIRECTION ( 'NONE',  ( 1.000000000000000000, 0.000000000000000000, -3.528251137579948177E-15 ) ) ;
#6 = PRODUCT_RELATED_PRODUCT_CATEGORY ( 'detail', '', ( #172 ) ) ;
#7 = DIRECTION ( 'NONE',  ( 0.000000000000000000, 1.000000000000000000, 0.000000000000000000 ) ) ;
#8 = DIRECTION ( 'NONE',  ( 2.486899575160351282E-14, -1.000000000000000000, 0.000000000000000000 ) ) ;
#9 = CIRCLE ( 'NONE', #121, 2.999999999999992895 ) ;
#10 = LOCAL_TIME ( 15, 40, 58.00000000000000000, #270 ) ;
#11 = DIRECTION ( 'NONE',  ( -2.398081733190338127E-14, -1.000000000000000000, 0.000000000000000000 ) ) ;
#12 = CC_DESIGN_PERSON_AND_ORGANIZATION_ASSIGNMENT ( #216, #328, ( #92 ) ) ;
#13 = DIRECTION ( 'NONE',  ( 3.491481338843133355E-15, -0.000000000000000000, 1.000000000000000000 ) ) ;
#14 = FACE_OUTER_BOUND ( 'NONE', #220, .T. ) ;
#15 = EDGE_CURVE ( 'NONE', #244, #192, #63, .T. ) ;
#16 = DIRECTION ( 'NONE',  ( 3.491481338843133355E-15, -1.224646799147353207E-16, 1.000000000000000000 ) ) ;
#17 = CALENDAR_DATE ( 2024, 4, 4 ) ;
#18 = CARTESIAN_POINT ( 'NONE',  ( 2.950000000000052136, 0.000000000000000000, 14.99999999999998757 ) ) ;
#19 = CALENDAR_DATE ( 2024, 4, 4 ) ;
#20 = CIRCLE ( 'NONE', #52, 2.950000000000000178 ) ;
#21 = ORIENTED_EDGE ( 'NONE', *, *, #191, .F. ) ;
#22 = EDGE_CURVE ( 'NONE', #209, #128, #354, .T. ) ;
#23 = DATE_AND_TIME ( #19, #10 ) ;
#24 = VERTEX_POINT ( 'NONE', #56 ) ;
#25 = PERSON_AND_ORGANIZATION ( #67, #210 ) ;
#26 = ORIENTED_EDGE ( 'NONE', *, *, #139, .F. ) ;
#27 = EDGE_CURVE ( 'NONE', #192, #24, #142, .T. ) ;
#28 = CALENDAR_DATE ( 2024, 4, 4 ) ;
#29 = ORIENTED_EDGE ( 'NONE', *, *, #143, .T. ) ;
#30 = CARTESIAN_POINT ( 'NONE',  ( 1.282749433769085655E-30, 2.999999999999995115, 3.673940397442053952E-16 ) ) ;
#31 = DIRECTION ( 'NONE',  ( -3.491481338843133355E-15, 1.224646799147343593E-16, -1.000000000000000000 ) ) ;
#32 = CARTESIAN_POINT ( 'NONE',  ( -4.275831445896958607E-31, 2.950000000000000178, -1.224646799147353454E-16 ) ) ;
#33 = ADVANCED_FACE ( 'NONE', ( #217 ), #329, .T. ) ;
#34 = AXIS2_PLACEMENT_3D ( 'NONE', #32, #118, #343 ) ;
#35 = CARTESIAN_POINT ( 'NONE',  ( 5.237222008264699402E-14, -1.836970198721029589E-15, 14.99999999999999822 ) ) ;
#36 = DIRECTION ( 'NONE',  ( -3.491481338843133355E-15, 1.224646799147343593E-16, -1.000000000000000000 ) ) ;
#37 = EDGE_CURVE ( 'NONE', #155, #24, #230, .T. ) ;
#38 = DIRECTION ( 'NONE',  ( 4.275831445896959482E-31, 1.000000000000000000, 1.224646799147353207E-16 ) ) ;
#39 = AXIS2_PLACEMENT_3D ( 'NONE', #176, #287, #211 ) ;
#40 = LINE ( 'NONE', #291, #84 ) ;
#41 = CARTESIAN_POINT ( 'NONE',  ( 0.000000000000000000, 0.000000000000000000, 0.000000000000000000 ) ) ;
#42 = CARTESIAN_POINT ( 'NONE',  ( 1.252561178193650074E-13, -3.000000000000002220, 56.39999999999998437 ) ) ;
#43 = ORIENTED_EDGE ( 'NONE', *, *, #27, .F. ) ;
#44 = EDGE_CURVE ( 'NONE', #128, #151, #1, .T. ) ;
#45 = CARTESIAN_POINT ( 'NONE',  ( 1.982976465481754348E-13, -2.399999999999995026, 57.00000000000000000 ) ) ;
#46 = APPLICATION_PROTOCOL_DEFINITION ( 'international standard', 'config_control_design', 1994, #242 ) ;
#47 = EDGE_LOOP ( 'NONE', ( #182, #271, #196, #331 ) ) ;
#48 = PERSON_AND_ORGANIZATION ( #67, #210 ) ;
#49 = ADVANCED_FACE ( 'NONE', ( #228 ), #200, .T. ) ;
#50 = ORIENTED_EDGE ( 'NONE', *, *, #255, .T. ) ;
#51 = PERSON_AND_ORGANIZATION ( #67, #210 ) ;
#52 = AXIS2_PLACEMENT_3D ( 'NONE', #35, #249, #231 ) ;
#53 = CARTESIAN_POINT ( 'NONE',  ( 5.237222008264699402E-14, 0.000000000000000000, 14.99999999999999822 ) ) ;
#54 = ORIENTED_EDGE ( 'NONE', *, *, #251, .F. ) ;
#55 = MECHANICAL_CONTEXT ( 'NONE', #123, 'mechanical' ) ;
#56 = CARTESIAN_POINT ( 'NONE',  ( 2.950000000000051248, 0.000000000000000000, 14.99999999999998757 ) ) ;
#57 = DIRECTION ( 'NONE',  ( -3.491481338843133355E-15, 1.224646799147343593E-16, -1.000000000000000000 ) ) ;
#58 = CC_DESIGN_APPROVAL ( #310, ( #92 ) ) ;
#59 = LINE ( 'NONE', #30, #213 ) ;
#60 = EDGE_CURVE ( 'NONE', #223, #158, #64, .T. ) ;
#61 = DIRECTION ( 'NONE',  ( 3.327098416510786821E-15, 0.3382550599108826161, 0.9410544694355821305 ) ) ;
#62 = DIRECTION ( 'NONE',  ( -3.491481338843133355E-15, 1.224646799147353207E-16, -1.000000000000000000 ) ) ;
#63 = CIRCLE ( 'NONE', #3, 2.950000000000000178 ) ;
#64 = LINE ( 'NONE', #312, #226 ) ;
#65 = CC_DESIGN_PERSON_AND_ORGANIZATION_ASSIGNMENT ( #51, #353, ( #214 ) ) ;
#66 = DIRECTION ( 'NONE',  ( -4.275831445896958607E-31, -1.000000000000000000, -1.224646799147353207E-16 ) ) ;
#67 = PERSON ( 'UNSPECIFIED', 'UNSPECIFIED', 'UNSPECIFIED', ('UNSPECIFIED'), ('UNSPECIFIED'), ('UNSPECIFIED') ) ;
#68 = DIRECTION ( 'NONE',  ( 3.491481338843133355E-15, -1.224646799147353207E-16, 1.000000000000000000 ) ) ;
#69 = CC_DESIGN_APPROVAL ( #197, ( #214 ) ) ;
#70 = CARTESIAN_POINT ( 'NONE',  ( 5.261506006556804243E-14, -2.950000000000001954, 14.99999999999999822 ) ) ;
#71 = UNCERTAINTY_MEASURE_WITH_UNIT (LENGTH_MEASURE( 1.000000000000000082E-05 ), #260, 'distance_accuracy_value', 'NONE');
#72 = ADVANCED_BREP_SHAPE_REPRESENTATION ( '42597', ( #115, #233, #180 ), #4 ) ;
#73 = DIRECTION ( 'NONE',  ( 1.000000000000000000, 0.000000000000000000, -3.491481338843132961E-15 ) ) ;
#74 = VECTOR ( 'NONE', #250, 1000.000000000000000 ) ;
#75 = ORIENTED_EDGE ( 'NONE', *, *, #86, .F. ) ;
#76 = DATE_AND_TIME ( #195, #286 ) ;
#77 = COORDINATED_UNIVERSAL_TIME_OFFSET ( 1, 0, .AHEAD. ) ;
#78 = ORIENTED_EDGE ( 'NONE', *, *, #168, .T. ) ;
#79 = CIRCLE ( 'NONE', #333, 2.999999999999995115 ) ;
#80 = ORIENTED_EDGE ( 'NONE', *, *, #15, .F. ) ;
#81 = ORIENTED_EDGE ( 'NONE', *, *, #251, .T. ) ;
#82 = CARTESIAN_POINT ( 'NONE',  ( 1.969195475107526708E-13, -6.907007947191070402E-15, 56.39999999999998437 ) ) ;
#83 = DIRECTION ( 'NONE',  ( -1.000000000000000000, 0.000000000000000000, 3.491481338843133355E-15 ) ) ;
#84 = VECTOR ( 'NONE', #322, 1000.000000000000114 ) ;
#85 = LOCAL_TIME ( 15, 40, 58.00000000000000000, #243 ) ;
#86 = EDGE_CURVE ( 'NONE', #24, #155, #349, .T. ) ;
#87 = CARTESIAN_POINT ( 'NONE',  ( 3.673940397442041133E-16, -2.999999999999995115, -3.673940397442066278E-16 ) ) ;
#88 = CARTESIAN_POINT ( 'NONE',  ( 5.237222008264699402E-14, 0.000000000000000000, 14.99999999999999822 ) ) ;
#89 = DIRECTION ( 'NONE',  ( 0.000000000000000000, -1.000000000000000000, 0.000000000000000000 ) ) ;
#90 = ADVANCED_FACE ( 'NONE', ( #280 ), #345, .T. ) ;
#91 = VECTOR ( 'NONE', #258, 1000.000000000000000 ) ;
#92 = SECURITY_CLASSIFICATION ( '', '', #103 ) ;
#93 = FACE_OUTER_BOUND ( 'NONE', #194, .T. ) ;
#94 = CARTESIAN_POINT ( 'NONE',  ( 1.969195475107526708E-13, -6.907007947191070402E-15, 56.39999999999998437 ) ) ;
#95 = ORIENTED_EDGE ( 'NONE', *, *, #139, .T. ) ;
#96 = CC_DESIGN_APPROVAL ( #347, ( #289 ) ) ;
#97 = CC_DESIGN_PERSON_AND_ORGANIZATION_ASSIGNMENT ( #188, #274, ( #289 ) ) ;
#98 = FACE_OUTER_BOUND ( 'NONE', #284, .T. ) ;
#99 = DIRECTION ( 'NONE',  ( 0.000000000000000000, -1.000000000000000000, 0.000000000000000000 ) ) ;
#100 = APPROVAL_STATUS ( 'not_yet_approved' ) ;
#101 = EDGE_CURVE ( 'NONE', #128, #209, #193, .T. ) ;
#102 = CIRCLE ( 'NONE', #309, 2.999999999999995115 ) ;
#103 = SECURITY_CLASSIFICATION_LEVEL ( 'unclassified' ) ;
#104 = ORIENTED_EDGE ( 'NONE', *, *, #101, .F. ) ;
#105 = APPROVAL_ROLE ( '' ) ;
#106 = DIRECTION ( 'NONE',  ( 3.491481338843133355E-15, -0.000000000000000000, 1.000000000000000000 ) ) ;
#107 = APPROVAL_ROLE ( '' ) ;
#108 = ORIENTED_EDGE ( 'NONE', *, *, #86, .T. ) ;
#109 = PERSON_AND_ORGANIZATION ( #67, #210 ) ;
#110 = ADVANCED_FACE ( 'NONE', ( #313 ), #173, .F. ) ;
#111 = AXIS2_PLACEMENT_3D ( 'NONE', #279, #31, #116 ) ;
#112 = DIRECTION ( 'NONE',  ( 3.491481338843133355E-15, -0.000000000000000000, 1.000000000000000000 ) ) ;
#113 = EDGE_LOOP ( 'NONE', ( #160, #359, #355, #261 ) ) ;
#114 = DIRECTION ( 'NONE',  ( 0.000000000000000000, 1.000000000000000000, 0.000000000000000000 ) ) ;
#115 = MANIFOLD_SOLID_BREP ( 'Corps-Déplacer/Copier1[1]', #161 ) ;
#116 = DIRECTION ( 'NONE',  ( 0.000000000000000000, 1.000000000000000000, 0.000000000000000000 ) ) ;
#117 = CARTESIAN_POINT ( 'NONE',  ( 5.237222008264699402E-14, -1.836970198721029589E-15, 14.99999999999999822 ) ) ;
#118 = DIRECTION ( 'NONE',  ( 3.491481338843133355E-15, -0.000000000000000000, 1.000000000000000000 ) ) ;
#119 = ADVANCED_FACE ( 'NONE', ( #278 ), #147, .F. ) ;
#120 = DIRECTION ( 'NONE',  ( -3.491481338843133355E-15, 1.224646799147353207E-16, -1.000000000000000000 ) ) ;
#121 = AXIS2_PLACEMENT_3D ( 'NONE', #253, #62, #149 ) ;
#122 = DIRECTION ( 'NONE',  ( 3.491481338843133355E-15, -1.224646799147353207E-16, 1.000000000000000000 ) ) ;
#123 = APPLICATION_CONTEXT ( 'configuration controlled 3d designs of mechanical parts and assemblies' ) ;
#124 = EDGE_CURVE ( 'NONE', #273, #158, #9, .T. ) ;
#125 = DIRECTION ( 'NONE',  ( 3.491481338843133355E-15, -0.000000000000000000, 1.000000000000000000 ) ) ;
#126 = AXIS2_PLACEMENT_3D ( 'NONE', #82, #57, #7 ) ;
#127 =( NAMED_UNIT ( * ) SI_UNIT ( $, .STERADIAN. ) SOLID_ANGLE_UNIT ( ) );
#128 = VERTEX_POINT ( 'NONE', #227 ) ;
#129 = CARTESIAN_POINT ( 'NONE',  ( 1.972869415504968762E-13, -3.000000000000002220, 56.39999999999998437 ) ) ;
#130 = EDGE_CURVE ( 'NONE', #265, #273, #198, .T. ) ;
#131 = DATE_TIME_ROLE ( 'creation_date' ) ;
#132 = EDGE_LOOP ( 'NONE', ( #108, #305 ) ) ;
#133 = VECTOR ( 'NONE', #154, 1000.000000000000000 ) ;
#134 = APPROVAL_PERSON_ORGANIZATION ( #306, #347, #105 ) ;
#135 = COORDINATED_UNIVERSAL_TIME_OFFSET ( 1, 0, .AHEAD. ) ;
#136 = DIRECTION ( 'NONE',  ( 3.491481338843133355E-15, -1.224646799147353207E-16, 1.000000000000000000 ) ) ;
#137 = SHAPE_DEFINITION_REPRESENTATION ( #344, #72 ) ;
#138 = ORIENTED_EDGE ( 'NONE', *, *, #124, .T. ) ;
#139 = EDGE_CURVE ( 'NONE', #223, #240, #236, .T. ) ;
#140 = APPLICATION_PROTOCOL_DEFINITION ( 'international standard', 'config_control_design', 1994, #123 ) ;
#141 = EDGE_LOOP ( 'NONE', ( #78, #363, #21, #224 ) ) ;
#142 = LINE ( 'NONE', #18, #146 ) ;
#143 = EDGE_CURVE ( 'NONE', #240, #223, #20, .T. ) ;
#144 = DIRECTION ( 'NONE',  ( -3.491481338843133355E-15, 1.224646799147353207E-16, -1.000000000000000000 ) ) ;
#145 = CARTESIAN_POINT ( 'NONE',  ( 5.237222008264699402E-14, 2.949999999999998845, 14.99999999999999822 ) ) ;
#146 = VECTOR ( 'NONE', #106, 1000.000000000000000 ) ;
#147 = PLANE ( 'NONE',  #302 ) ;
#148 = DIRECTION ( 'NONE',  ( 1.000000000000000000, 0.000000000000000000, -3.528251137579948177E-15 ) ) ;
#149 = DIRECTION ( 'NONE',  ( 0.000000000000000000, 1.000000000000000000, 0.000000000000000000 ) ) ;
#150 =( NAMED_UNIT ( * ) PLANE_ANGLE_UNIT ( ) SI_UNIT ( $, .RADIAN. ) );
#151 = VERTEX_POINT ( 'NONE', #315 ) ;
#152 = AXIS2_PLACEMENT_3D ( 'NONE', #235, #68, #66 ) ;
#153 = CARTESIAN_POINT ( 'NONE',  ( 5.237222008264699402E-14, 0.000000000000000000, 14.99999999999999822 ) ) ;
#154 = DIRECTION ( 'NONE',  ( 3.491481338843133355E-15, -0.000000000000000000, 1.000000000000000000 ) ) ;
#155 = VERTEX_POINT ( 'NONE', #254 ) ;
#156 = CONICAL_SURFACE ( 'NONE', #252, 2.950000000000000178, 0.3450620389298198476 ) ;
#157 = APPROVAL_STATUS ( 'not_yet_approved' ) ;
#158 = VERTEX_POINT ( 'NONE', #175 ) ;
#159 = APPROVAL_ROLE ( '' ) ;
#160 = ORIENTED_EDGE ( 'NONE', *, *, #130, .F. ) ;
#161 = CLOSED_SHELL ( 'NONE', ( #90, #241, #218, #342, #337, #33, #232, #205 ) ) ;
#162 = APPROVAL_PERSON_ORGANIZATION ( #109, #310, #159 ) ;
#163 = PERSON_AND_ORGANIZATION_ROLE ( 'design_supplier' ) ;
#164 = ORIENTED_EDGE ( 'NONE', *, *, #358, .F. ) ;
#165 = CARTESIAN_POINT ( 'NONE',  ( 0.000000000000000000, 0.000000000000000000, 0.000000000000000000 ) ) ;
#166 = ORIENTED_EDGE ( 'NONE', *, *, #191, .T. ) ;
#167 = PERSON_AND_ORGANIZATION ( #67, #210 ) ;
#168 = EDGE_CURVE ( 'NONE', #151, #265, #79, .T. ) ;
#169 = AXIS2_PLACEMENT_3D ( 'NONE', #256, #170, #229 ) ;
#170 = DIRECTION ( 'NONE',  ( 3.491481338843133355E-15, -0.000000000000000000, 1.000000000000000000 ) ) ;
#171 = CARTESIAN_POINT ( 'NONE',  ( 1.990144363140586139E-13, -6.980486755139912911E-15, 57.00000000000000000 ) ) ;
#172 = PRODUCT ( '42597', '42597', '', ( #55 ) ) ;
#173 = PLANE ( 'NONE',  #34 ) ;
#174 = CIRCLE ( 'NONE', #326, 2.999999999999992895 ) ;
#175 = CARTESIAN_POINT ( 'NONE',  ( 5.285790004848909716E-14, 2.999999999999991118, 15.13910427085456689 ) ) ;
#176 = CARTESIAN_POINT ( 'NONE',  ( 5.237222008264699402E-14, 2.949999999999998845, 14.99999999999999822 ) ) ;
#177 = EDGE_CURVE ( 'NONE', #151, #158, #59, .T. ) ;
#178 = PLANE ( 'NONE',  #39 ) ;
#179 = VECTOR ( 'NONE', #311, 1000.000000000000114 ) ;
#180 = AXIS2_PLACEMENT_3D ( 'NONE', #165, #238, #330 ) ;
#181 = CARTESIAN_POINT ( 'NONE',  ( -2.950000000000000178, 3.612708057484724144E-16, 1.029986994958724498E-14 ) ) ;
#182 = ORIENTED_EDGE ( 'NONE', *, *, #255, .F. ) ;
#183 = CARTESIAN_POINT ( 'NONE',  ( 5.237222008264699402E-14, -1.836970198721029589E-15, 14.99999999999999822 ) ) ;
#184 = CYLINDRICAL_SURFACE ( 'NONE', #339, 2.949999999999999289 ) ;
#185 = AXIS2_PLACEMENT_3D ( 'NONE', #299, #219, #301 ) ;
#186 = LOCAL_TIME ( 15, 40, 58.00000000000000000, #360 ) ;
#187 = EDGE_LOOP ( 'NONE', ( #335, #81, #327, #357 ) ) ;
#188 = PERSON_AND_ORGANIZATION ( #67, #210 ) ;
#189 = ORIENTED_EDGE ( 'NONE', *, *, #101, .T. ) ;
#190 = APPROVAL_DATE_TIME ( #267, #347 ) ;
#191 = EDGE_CURVE ( 'NONE', #158, #273, #174, .T. ) ;
#192 = VERTEX_POINT ( 'NONE', #225 ) ;
#193 = CIRCLE ( 'NONE', #247, 2.399999999999987921 ) ;
#194 = EDGE_LOOP ( 'NONE', ( #297, #277, #245, #138 ) ) ;
#195 = CALENDAR_DATE ( 2024, 4, 4 ) ;
#196 = ORIENTED_EDGE ( 'NONE', *, *, #27, .T. ) ;
#197 = APPROVAL ( #100, 'UNSPECIFIED' ) ;
#198 = LINE ( 'NONE', #87, #74 ) ;
#199 = DIRECTION ( 'NONE',  ( 3.491481338843133355E-15, -0.000000000000000000, 1.000000000000000000 ) ) ;
#200 = CYLINDRICAL_SURFACE ( 'NONE', #169, 2.949999999999999289 ) ;
#201 = DIRECTION ( 'NONE',  ( -3.491481338843133355E-15, 1.224646799147353207E-16, -1.000000000000000000 ) ) ;
#202 = AXIS2_PLACEMENT_3D ( 'NONE', #117, #201, #282 ) ;
#203 = DIRECTION ( 'NONE',  ( 3.491481338843133355E-15, -0.000000000000000000, 1.000000000000000000 ) ) ;
#204 = CARTESIAN_POINT ( 'NONE',  ( -2.949999999999946887, 3.612708057484691604E-16, 15.00000000000000888 ) ) ;
#205 = ADVANCED_FACE ( 'NONE', ( #338 ), #264, .T. ) ;
#206 = FACE_OUTER_BOUND ( 'NONE', #324, .T. ) ;
#207 = DIRECTION ( 'NONE',  ( -3.491481338843133355E-15, 1.224646799147353207E-16, -1.000000000000000000 ) ) ;
#208 = AXIS2_PLACEMENT_3D ( 'NONE', #88, #199, #148 ) ;
#209 = VERTEX_POINT ( 'NONE', #45 ) ;
#210 = ORGANIZATION ( 'UNSPECIFIED', 'UNSPECIFIED', '' ) ;
#211 = DIRECTION ( 'NONE',  ( 4.275831445896958607E-31, 1.000000000000000000, 1.224646799147353207E-16 ) ) ;
#212 = CC_DESIGN_DATE_AND_TIME_ASSIGNMENT ( #356, #131, ( #289 ) ) ;
#213 = VECTOR ( 'NONE', #120, 1000.000000000000000 ) ;
#214 = PRODUCT_DEFINITION_FORMATION_WITH_SPECIFIED_SOURCE ( 'ANY', '', #172, .NOT_KNOWN. ) ;
#215 = DESIGN_CONTEXT ( 'detailed design', #242, 'design' ) ;
#216 = PERSON_AND_ORGANIZATION ( #67, #210 ) ;
#217 = FACE_OUTER_BOUND ( 'NONE', #113, .T. ) ;
#218 = ADVANCED_FACE ( 'NONE', ( #288 ), #350, .T. ) ;
#219 = DIRECTION ( 'NONE',  ( -3.491481338843133355E-15, 1.224646799147353207E-16, -1.000000000000000000 ) ) ;
#220 = EDGE_LOOP ( 'NONE', ( #352, #50, #75, #43 ) ) ;
#221 = AXIS2_PLACEMENT_3D ( 'NONE', #246, #136, #361 ) ;
#222 = APPROVAL_DATE_TIME ( #23, #310 ) ;
#223 = VERTEX_POINT ( 'NONE', #346 ) ;
#224 = ORIENTED_EDGE ( 'NONE', *, *, #177, .F. ) ;
#225 = CARTESIAN_POINT ( 'NONE',  ( 2.950000000000000178, 0.000000000000000000, -1.029986994958724340E-14 ) ) ;
#226 = VECTOR ( 'NONE', #61, 1000.000000000000114 ) ;
#227 = CARTESIAN_POINT ( 'NONE',  ( 1.979669919124056423E-13, 2.399999999999981259, 57.00000000000000000 ) ) ;
#228 = FACE_OUTER_BOUND ( 'NONE', #47, .T. ) ;
#229 = DIRECTION ( 'NONE',  ( 1.000000000000000000, 0.000000000000000000, -3.528251137579947388E-15 ) ) ;
#230 = CIRCLE ( 'NONE', #314, 2.949999999999998845 ) ;
#231 = DIRECTION ( 'NONE',  ( 0.000000000000000000, 1.000000000000000000, 0.000000000000000000 ) ) ;
#232 = ADVANCED_FACE ( 'NONE', ( #93 ), #156, .T. ) ;
#233 = MANIFOLD_SOLID_BREP ( 'Corps-Déplacer/Copier1[2]', #281 ) ;
#234 = CARTESIAN_POINT ( 'NONE',  ( 0.000000000000000000, 0.000000000000000000, 0.000000000000000000 ) ) ;
#235 = CARTESIAN_POINT ( 'NONE',  ( 1.990144363140586139E-13, -6.980486755139912911E-15, 57.00000000000000000 ) ) ;
#236 = CIRCLE ( 'NONE', #202, 2.950000000000000178 ) ;
#237 = ORIENTED_EDGE ( 'NONE', *, *, #22, .T. ) ;
#238 = DIRECTION ( 'NONE',  ( 0.000000000000000000, 0.000000000000000000, 1.000000000000000000 ) ) ;
#239 = DATE_AND_TIME ( #300, #186 ) ;
#240 = VERTEX_POINT ( 'NONE', #70 ) ;
#241 = ADVANCED_FACE ( 'NONE', ( #263 ), #362, .T. ) ;
#242 = APPLICATION_CONTEXT ( 'configuration controlled 3d designs of mechanical parts and assemblies' ) ;
#243 = COORDINATED_UNIVERSAL_TIME_OFFSET ( 1, 0, .AHEAD. ) ;
#244 = VERTEX_POINT ( 'NONE', #181 ) ;
#245 = ORIENTED_EDGE ( 'NONE', *, *, #358, .T. ) ;
#246 = CARTESIAN_POINT ( 'NONE',  ( 1.990144363140586139E-13, -6.980486755139912911E-15, 57.00000000000000000 ) ) ;
#247 = AXIS2_PLACEMENT_3D ( 'NONE', #171, #283, #89 ) ;
#248 = ORIENTED_EDGE ( 'NONE', *, *, #325, .F. ) ;
#249 = DIRECTION ( 'NONE',  ( -3.491481338843133355E-15, 1.224646799147353207E-16, -1.000000000000000000 ) ) ;
#250 = DIRECTION ( 'NONE',  ( -3.491481338843133355E-15, 1.224646799147353207E-16, -1.000000000000000000 ) ) ;
#251 = EDGE_CURVE ( 'NONE', #209, #265, #321, .T. ) ;
#252 = AXIS2_PLACEMENT_3D ( 'NONE', #351, #122, #266 ) ;
#253 = CARTESIAN_POINT ( 'NONE',  ( 5.285790004848909716E-14, -1.854005558726006930E-15, 15.13910427085456689 ) ) ;
#254 = CARTESIAN_POINT ( 'NONE',  ( -2.949999999999945999, 3.612708057484691111E-16, 15.00000000000000888 ) ) ;
#255 = EDGE_CURVE ( 'NONE', #244, #155, #293, .T. ) ;
#256 = CARTESIAN_POINT ( 'NONE',  ( 5.237222008264699402E-14, 0.000000000000000000, 14.99999999999999822 ) ) ;
#257 = AXIS2_PLACEMENT_3D ( 'NONE', #41, #207, #38 ) ;
#258 = DIRECTION ( 'NONE',  ( -2.382254525458737980E-15, -0.7071067811865415775, -0.7071067811865535679 ) ) ;
#259 = LOCAL_TIME ( 15, 40, 58.00000000000000000, #77 ) ;
#260 =( LENGTH_UNIT ( ) NAMED_UNIT ( * ) SI_UNIT ( .MILLI., .METRE. ) );
#261 = ORIENTED_EDGE ( 'NONE', *, *, #124, .F. ) ;
#262 = CARTESIAN_POINT ( 'NONE',  ( 1.252561178193650326E-13, -2.999999999999994227, 15.13910427085456689 ) ) ;
#263 = FACE_OUTER_BOUND ( 'NONE', #348, .T. ) ;
#264 = CONICAL_SURFACE ( 'NONE', #111, 2.999999999999995115, 0.7853981633974399523 ) ;
#265 = VERTEX_POINT ( 'NONE', #42 ) ;
#266 = DIRECTION ( 'NONE',  ( 0.000000000000000000, -1.000000000000000000, 0.000000000000000000 ) ) ;
#267 = DATE_AND_TIME ( #28, #85 ) ;
#268 = CC_DESIGN_PERSON_AND_ORGANIZATION_ASSIGNMENT ( #48, #163, ( #214 ) ) ;
#269 = CARTESIAN_POINT ( 'NONE',  ( 0.000000000000000000, 0.000000000000000000, 0.000000000000000000 ) ) ;
#270 = COORDINATED_UNIVERSAL_TIME_OFFSET ( 1, 0, .AHEAD. ) ;
#271 = ORIENTED_EDGE ( 'NONE', *, *, #15, .T. ) ;
#272 = APPROVAL_STATUS ( 'not_yet_approved' ) ;
#273 = VERTEX_POINT ( 'NONE', #262 ) ;
#274 = PERSON_AND_ORGANIZATION_ROLE ( 'creator' ) ;
#275 = ORIENTED_EDGE ( 'NONE', *, *, #319, .F. ) ;
#276 = CC_DESIGN_PERSON_AND_ORGANIZATION_ASSIGNMENT ( #167, #334, ( #172 ) ) ;
#277 = ORIENTED_EDGE ( 'NONE', *, *, #143, .F. ) ;
#278 = FACE_OUTER_BOUND ( 'NONE', #132, .T. ) ;
#279 = CARTESIAN_POINT ( 'NONE',  ( 1.969195475107526708E-13, -6.907007947191070402E-15, 56.39999999999998437 ) ) ;
#280 = FACE_OUTER_BOUND ( 'NONE', #187, .T. ) ;
#281 = CLOSED_SHELL ( 'NONE', ( #316, #49, #119, #110 ) ) ;
#282 = DIRECTION ( 'NONE',  ( 0.000000000000000000, 1.000000000000000000, 0.000000000000000000 ) ) ;
#283 = DIRECTION ( 'NONE',  ( 3.491481338843133355E-15, -1.224646799147353207E-16, 1.000000000000000000 ) ) ;
#284 = EDGE_LOOP ( 'NONE', ( #29, #95 ) ) ;
#285 = CIRCLE ( 'NONE', #294, 2.950000000000000178 ) ;
#286 = LOCAL_TIME ( 15, 40, 58.00000000000000000, #135 ) ;
#287 = DIRECTION ( 'NONE',  ( -3.491481338843133355E-15, 1.224646799147353207E-16, -1.000000000000000000 ) ) ;
#288 = FACE_OUTER_BOUND ( 'NONE', #141, .T. ) ;
#289 = PRODUCT_DEFINITION ( 'UNKNOWN', '', #214, #215 ) ;
#290 = ORIENTED_EDGE ( 'NONE', *, *, #44, .T. ) ;
#291 = CARTESIAN_POINT ( 'NONE',  ( 5.237222008264699402E-14, -2.950000000000001954, 14.99999999999999822 ) ) ;
#292 = EDGE_LOOP ( 'NONE', ( #275, #80 ) ) ;
#293 = LINE ( 'NONE', #204, #133 ) ;
#294 = AXIS2_PLACEMENT_3D ( 'NONE', #234, #125, #73 ) ;
#295 = APPROVAL_PERSON_ORGANIZATION ( #25, #197, #107 ) ;
#296 = CC_DESIGN_DATE_AND_TIME_ASSIGNMENT ( #76, #298, ( #92 ) ) ;
#297 = ORIENTED_EDGE ( 'NONE', *, *, #60, .F. ) ;
#298 = DATE_TIME_ROLE ( 'classification_date' ) ;
#299 = CARTESIAN_POINT ( 'NONE',  ( 0.000000000000000000, 0.000000000000000000, 0.000000000000000000 ) ) ;
#300 = CALENDAR_DATE ( 2024, 4, 4 ) ;
#301 = DIRECTION ( 'NONE',  ( 4.275831445896959482E-31, 1.000000000000000000, 1.224646799147353207E-16 ) ) ;
#302 = AXIS2_PLACEMENT_3D ( 'NONE', #145, #340, #83 ) ;
#303 = CC_DESIGN_SECURITY_CLASSIFICATION ( #92, ( #214 ) ) ;
#304 = APPROVAL_DATE_TIME ( #239, #197 ) ;
#305 = ORIENTED_EDGE ( 'NONE', *, *, #37, .T. ) ;
#306 = PERSON_AND_ORGANIZATION ( #67, #210 ) ;
#307 = DIRECTION ( 'NONE',  ( 1.000000000000000000, 0.000000000000000000, -3.491481338843132961E-15 ) ) ;
#308 = CARTESIAN_POINT ( 'NONE',  ( 5.285790004848909716E-14, -1.854005558726006930E-15, 15.13910427085456689 ) ) ;
#309 = AXIS2_PLACEMENT_3D ( 'NONE', #94, #317, #11 ) ;
#310 = APPROVAL ( #272, 'UNSPECIFIED' ) ;
#311 = DIRECTION ( 'NONE',  ( -2.468850131082285460E-15, 0.7071067811865416886, -0.7071067811865532349 ) ) ;
#312 = CARTESIAN_POINT ( 'NONE',  ( 5.273349088839546397E-14, 2.949999999999998845, 14.99999999999999822 ) ) ;
#313 = FACE_OUTER_BOUND ( 'NONE', #292, .T. ) ;
#314 = AXIS2_PLACEMENT_3D ( 'NONE', #53, #203, #5 ) ;
#315 = CARTESIAN_POINT ( 'NONE',  ( 1.248887237796209029E-13, 2.999999999999988454, 56.39999999999998437 ) ) ;
#316 = ADVANCED_FACE ( 'NONE', ( #14 ), #184, .T. ) ;
#317 = DIRECTION ( 'NONE',  ( -3.491481338843133355E-15, 1.224646799147343593E-16, -1.000000000000000000 ) ) ;
#318 = PLANE ( 'NONE',  #152 ) ;
#319 = EDGE_CURVE ( 'NONE', #192, #244, #285, .T. ) ;
#320 = AXIS2_PLACEMENT_3D ( 'NONE', #183, #16, #99 ) ;
#321 = LINE ( 'NONE', #129, #91 ) ;
#322 = DIRECTION ( 'NONE',  ( 3.285674118869260632E-15, -0.3382550599108828382, 0.9410544694355821305 ) ) ;
#323 = DIRECTION ( 'NONE',  ( 1.000000000000000000, 0.000000000000000000, -3.528251137579947388E-15 ) ) ;
#324 = EDGE_LOOP ( 'NONE', ( #189, #237 ) ) ;
#325 = EDGE_CURVE ( 'NONE', #265, #151, #102, .T. ) ;
#326 = AXIS2_PLACEMENT_3D ( 'NONE', #308, #144, #114 ) ;
#327 = ORIENTED_EDGE ( 'NONE', *, *, #168, .F. ) ;
#328 = PERSON_AND_ORGANIZATION_ROLE ( 'classification_officer' ) ;
#329 = CYLINDRICAL_SURFACE ( 'NONE', #185, 2.999999999999995115 ) ;
#330 = DIRECTION ( 'NONE',  ( 1.000000000000000000, 0.000000000000000000, 0.000000000000000000 ) ) ;
#331 = ORIENTED_EDGE ( 'NONE', *, *, #37, .F. ) ;
#332 = ORIENTED_EDGE ( 'NONE', *, *, #60, .T. ) ;
#333 = AXIS2_PLACEMENT_3D ( 'NONE', #2, #36, #8 ) ;
#334 = PERSON_AND_ORGANIZATION_ROLE ( 'design_owner' ) ;
#335 = ORIENTED_EDGE ( 'NONE', *, *, #22, .F. ) ;
#336 = EDGE_LOOP ( 'NONE', ( #54, #104, #290, #248 ) ) ;
#337 = ADVANCED_FACE ( 'NONE', ( #206 ), #318, .T. ) ;
#338 = FACE_OUTER_BOUND ( 'NONE', #336, .T. ) ;
#339 = AXIS2_PLACEMENT_3D ( 'NONE', #153, #13, #323 ) ;
#340 = DIRECTION ( 'NONE',  ( -3.491481338843133355E-15, 0.000000000000000000, -1.000000000000000000 ) ) ;
#341 = CARTESIAN_POINT ( 'NONE',  ( 1.969195475107526708E-13, 2.999999999999988454, 56.39999999999998437 ) ) ;
#342 = ADVANCED_FACE ( 'NONE', ( #98 ), #178, .T. ) ;
#343 = DIRECTION ( 'NONE',  ( 1.000000000000000000, 0.000000000000000000, -3.491481338843133355E-15 ) ) ;
#344 = PRODUCT_DEFINITION_SHAPE ( 'NONE', 'NONE',  #289 ) ;
#345 = CONICAL_SURFACE ( 'NONE', #126, 2.999999999999995115, 0.7853981633974399523 ) ;
#346 = CARTESIAN_POINT ( 'NONE',  ( 5.297939248831438013E-14, 2.949999999999998845, 14.99999999999999822 ) ) ;
#347 = APPROVAL ( #157, 'UNSPECIFIED' ) ;
#348 = EDGE_LOOP ( 'NONE', ( #26, #332, #166, #164 ) ) ;
#349 = CIRCLE ( 'NONE', #208, 2.949999999999998845 ) ;
#350 = CYLINDRICAL_SURFACE ( 'NONE', #257, 2.999999999999995115 ) ;
#351 = CARTESIAN_POINT ( 'NONE',  ( 5.237222008264699402E-14, -1.836970198721029589E-15, 14.99999999999999822 ) ) ;
#352 = ORIENTED_EDGE ( 'NONE', *, *, #319, .T. ) ;
#353 = PERSON_AND_ORGANIZATION_ROLE ( 'creator' ) ;
#354 = CIRCLE ( 'NONE', #221, 2.399999999999987921 ) ;
#355 = ORIENTED_EDGE ( 'NONE', *, *, #177, .T. ) ;
#356 = DATE_AND_TIME ( #17, #259 ) ;
#357 = ORIENTED_EDGE ( 'NONE', *, *, #44, .F. ) ;
#358 = EDGE_CURVE ( 'NONE', #240, #273, #40, .T. ) ;
#359 = ORIENTED_EDGE ( 'NONE', *, *, #325, .T. ) ;
#360 = COORDINATED_UNIVERSAL_TIME_OFFSET ( 1, 0, .AHEAD. ) ;
#361 = DIRECTION ( 'NONE',  ( 0.000000000000000000, -1.000000000000000000, 0.000000000000000000 ) ) ;
#362 = CONICAL_SURFACE ( 'NONE', #320, 2.950000000000000178, 0.3450620389298198476 ) ;
#363 = ORIENTED_EDGE ( 'NONE', *, *, #130, .T. ) ;
ENDSEC;
END-ISO-10303-21;
