ISO-10303-21;
HEADER;
FILE_DESCRIPTION (( 'STEP AP214' ),
    '1' );
FILE_NAME ('42591.step',
    '2024-04-04T09:33:02',
    ( '' ),
    ( '' ),
    'SwSTEP 2.0',
    'SolidWorks 2022',
    '' );
FILE_SCHEMA (( 'AUTOMOTIVE_DESIGN' ));
ENDSEC;

DATA;
#1 = DIRECTION ( 'NONE',  ( 4.275831445896958607E-31, 1.000000000000000000, 1.224646799147353207E-16 ) ) ;
#2 = PRODUCT_DEFINITION_CONTEXT ( 'detailed design', #24, 'design' ) ;
#3 = VERTEX_POINT ( 'NONE', #72 ) ;
#4 = CARTESIAN_POINT ( 'NONE',  ( 8.379555213223520053E-14, -2.939152317953647894E-15, 24.00000000000000000 ) ) ;
#5 = ADVANCED_FACE ( 'NONE', ( #309 ), #262, .T. ) ;
#6 = STYLED_ITEM ( 'NONE', ( #67 ), #227 ) ;
#7 = UNCERTAINTY_MEASURE_WITH_UNIT (LENGTH_MEASURE( 1.000000000000000082E-05 ), #308, 'distance_accuracy_value', 'NONE');
#8 = CYLINDRICAL_SURFACE ( 'NONE', #173, 4.949999999999998401 ) ;
#9 = ORIENTED_EDGE ( 'NONE', *, *, #51, .T. ) ;
#10 = SURFACE_STYLE_USAGE ( .BOTH. , #334 ) ;
#11 = DIRECTION ( 'NONE',  ( -3.491481338843133355E-15, 1.224646799147353207E-16, -1.000000000000000000 ) ) ;
#12 = DIRECTION ( 'NONE',  ( 4.275831445896958607E-31, 1.000000000000000000, 1.224646799147353207E-16 ) ) ;
#13 = CARTESIAN_POINT ( 'NONE',  ( 0.000000000000000000, 0.000000000000000000, 0.000000000000000000 ) ) ;
#14 = DIRECTION ( 'NONE',  ( -3.491481338843133355E-15, 1.224646799147353207E-16, -1.000000000000000000 ) ) ;
#15 = VERTEX_POINT ( 'NONE', #204 ) ;
#16 = CONICAL_SURFACE ( 'NONE', #329, 4.949999999999999289, 0.3450620389298258428 ) ;
#17 = ORIENTED_EDGE ( 'NONE', *, *, #233, .T. ) ;
#18 = CARTESIAN_POINT ( 'NONE',  ( 0.000000000000000000, 0.000000000000000000, 0.000000000000000000 ) ) ;
#19 =( NAMED_UNIT ( * ) SI_UNIT ( $, .STERADIAN. ) SOLID_ANGLE_UNIT ( ) );
#20 = DIRECTION ( 'NONE',  ( 3.491481338843133355E-15, -0.000000000000000000, 1.000000000000000000 ) ) ;
#21 = ADVANCED_FACE ( 'NONE', ( #43 ), #301, .T. ) ;
#22 = DIRECTION ( 'NONE',  ( 1.000000000000000000, 0.000000000000000000, 0.000000000000000000 ) ) ;
#23 = CARTESIAN_POINT ( 'NONE',  ( 2.513866563967056016E-13, -8.817456953860941711E-15, 72.00000000000000000 ) ) ;
#24 = APPLICATION_CONTEXT ( 'automotive_design' ) ;
#25 = ORIENTED_EDGE ( 'NONE', *, *, #318, .F. ) ;
#26 = AXIS2_PLACEMENT_3D ( 'NONE', #23, #105, #184 ) ;
#27 = DIRECTION ( 'NONE',  ( 1.000000000000000000, 0.000000000000000000, -3.504491870660218926E-15 ) ) ;
#28 = EDGE_LOOP ( 'NONE', ( #108, #137 ) ) ;
#29 = CYLINDRICAL_SURFACE ( 'NONE', #202, 4.999999999999999112 ) ;
#30 = VERTEX_POINT ( 'NONE', #123 ) ;
#31 = DIRECTION ( 'NONE',  ( -3.491481338843133355E-15, 1.224646799147353207E-16, -1.000000000000000000 ) ) ;
#32 = UNCERTAINTY_MEASURE_WITH_UNIT (LENGTH_MEASURE( 1.000000000000000082E-05 ), #134, 'distance_accuracy_value', 'NONE');
#33 = DIRECTION ( 'NONE',  ( 3.491481338843133355E-15, -0.000000000000000000, 1.000000000000000000 ) ) ;
#34 = COLOUR_RGB ( '',1.000000000000000000, 1.000000000000000000, 1.000000000000000000 ) ;
#35 = AXIS2_PLACEMENT_3D ( 'NONE', #4, #14, #324 ) ;
#36 = UNCERTAINTY_MEASURE_WITH_UNIT (LENGTH_MEASURE( 1.000000000000000082E-05 ), #305, 'distance_accuracy_value', 'NONE');
#37 = PRODUCT_DEFINITION_FORMATION_WITH_SPECIFIED_SOURCE ( 'ANY', '', #223, .NOT_KNOWN. ) ;
#38 = ADVANCED_FACE ( 'NONE', ( #125 ), #16, .T. ) ;
#39 = EDGE_LOOP ( 'NONE', ( #193, #186, #85, #88 ) ) ;
#40 = CARTESIAN_POINT ( 'NONE',  ( 2.478951750578624304E-13, -8.694992273946206563E-15, 71.00000000000000000 ) ) ;
#41 = EDGE_LOOP ( 'NONE', ( #158, #316 ) ) ;
#42 = CARTESIAN_POINT ( 'NONE',  ( 2.513866563967056016E-13, -8.817456953860941711E-15, 72.00000000000000000 ) ) ;
#43 = FACE_OUTER_BOUND ( 'NONE', #343, .T. ) ;
#44 = AXIS2_PLACEMENT_3D ( 'NONE', #100, #281, #124 ) ;
#45 = DIRECTION ( 'NONE',  ( -1.598721155460225103E-14, -1.000000000000000000, 0.000000000000000000 ) ) ;
#46 =( NAMED_UNIT ( * ) SI_UNIT ( $, .STERADIAN. ) SOLID_ANGLE_UNIT ( ) );
#47 = DIRECTION ( 'NONE',  ( 3.491481338843133355E-15, -0.000000000000000000, 1.000000000000000000 ) ) ;
#48 = CARTESIAN_POINT ( 'NONE',  ( 6.123233995736743603E-16, -4.999999999999999112, -6.123233995736786004E-16 ) ) ;
#49 = AXIS2_PLACEMENT_3D ( 'NONE', #84, #182, #27 ) ;
#50 = FACE_OUTER_BOUND ( 'NONE', #163, .T. ) ;
#51 = EDGE_CURVE ( 'NONE', #3, #325, #150, .T. ) ;
#52 = CARTESIAN_POINT ( 'NONE',  ( 2.478951750578624304E-13, -8.694992273946206563E-15, 71.00000000000000000 ) ) ;
#53 = APPLICATION_CONTEXT ( 'automotive_design' ) ;
#54 = VECTOR ( 'NONE', #104, 1000.000000000000000 ) ;
#55 = VECTOR ( 'NONE', #220, 1000.000000000000114 ) ;
#56 = DIRECTION ( 'NONE',  ( 0.000000000000000000, 1.000000000000000000, 0.000000000000000000 ) ) ;
#57 = ORIENTED_EDGE ( 'NONE', *, *, #177, .F. ) ;
#58 = VERTEX_POINT ( 'NONE', #257 ) ;
#59 = SHAPE_DEFINITION_REPRESENTATION ( #273, #236 ) ;
#60 = DIRECTION ( 'NONE',  ( 3.491481338843133355E-15, -0.000000000000000000, 1.000000000000000000 ) ) ;
#61 = ORIENTED_EDGE ( 'NONE', *, *, #194, .T. ) ;
#62 = VECTOR ( 'NONE', #216, 1000.000000000000114 ) ;
#63 = EDGE_CURVE ( 'NONE', #58, #290, #248, .T. ) ;
#64 = SURFACE_STYLE_FILL_AREA ( #214 ) ;
#65 = AXIS2_PLACEMENT_3D ( 'NONE', #327, #47, #126 ) ;
#66 = ORIENTED_EDGE ( 'NONE', *, *, #63, .F. ) ;
#67 = PRESENTATION_STYLE_ASSIGNMENT (( #10 ) ) ;
#68 = ORIENTED_EDGE ( 'NONE', *, *, #318, .T. ) ;
#69 = ORIENTED_EDGE ( 'NONE', *, *, #215, .F. ) ;
#70 = DIRECTION ( 'NONE',  ( -3.491481338843133355E-15, 1.224646799147349263E-16, -1.000000000000000000 ) ) ;
#71 = FACE_OUTER_BOUND ( 'NONE', #313, .T. ) ;
#72 = CARTESIAN_POINT ( 'NONE',  ( 1.667005269775435144E-13, -5.000000000000007994, 71.00000000000000000 ) ) ;
#73 = CARTESIAN_POINT ( 'NONE',  ( 2.513866563967056016E-13, -8.817456953860941711E-15, 72.00000000000000000 ) ) ;
#74 =( NAMED_UNIT ( * ) SI_UNIT ( $, .STERADIAN. ) SOLID_ANGLE_UNIT ( ) );
#75 = CARTESIAN_POINT ( 'NONE',  ( 4.950000000000081002, 0.000000000000000000, 23.99999999999998224 ) ) ;
#76 = CARTESIAN_POINT ( 'NONE',  ( 8.379555213223520053E-14, 4.949999999999996625, 24.00000000000000000 ) ) ;
#77 = MECHANICAL_DESIGN_GEOMETRIC_PRESENTATION_REPRESENTATION (  '', ( #6 ), #185 ) ;
#78 =( GEOMETRIC_REPRESENTATION_CONTEXT ( 3 ) GLOBAL_UNCERTAINTY_ASSIGNED_CONTEXT ( ( #117 ) ) GLOBAL_UNIT_ASSIGNED_CONTEXT ( ( #276, #330, #46 ) ) REPRESENTATION_CONTEXT ( 'NONE', 'WORKASPACE' ) );
#79 = LINE ( 'NONE', #275, #143 ) ;
#80 = PRESENTATION_STYLE_ASSIGNMENT (( #238 ) ) ;
#81 = PRESENTATION_LAYER_ASSIGNMENT (  '', '', ( #226 ) ) ;
#82 = PRESENTATION_LAYER_ASSIGNMENT (  '', '', ( #6 ) ) ;
#83 = VERTEX_POINT ( 'NONE', #75 ) ;
#84 = CARTESIAN_POINT ( 'NONE',  ( 8.379555213223520053E-14, 0.000000000000000000, 24.00000000000000000 ) ) ;
#85 = ORIENTED_EDGE ( 'NONE', *, *, #215, .T. ) ;
#86 = FACE_OUTER_BOUND ( 'NONE', #255, .T. ) ;
#87 = AXIS2_PLACEMENT_3D ( 'NONE', #91, #171, #342 ) ;
#88 = ORIENTED_EDGE ( 'NONE', *, *, #164, .F. ) ;
#89 = ORIENTED_EDGE ( 'NONE', *, *, #131, .F. ) ;
#90 = CARTESIAN_POINT ( 'NONE',  ( 8.403839211515626156E-14, -4.950000000000001954, 24.00000000000000000 ) ) ;
#91 = CARTESIAN_POINT ( 'NONE',  ( 8.379555213223520053E-14, -2.939152317953647894E-15, 24.00000000000000000 ) ) ;
#92 = DIRECTION ( 'NONE',  ( 3.491481338843133355E-15, -1.224646799147353207E-16, 1.000000000000000000 ) ) ;
#93 = DIRECTION ( 'NONE',  ( -3.491481338843133355E-15, 1.224646799147353207E-16, -1.000000000000000000 ) ) ;
#94 = DIRECTION ( 'NONE',  ( 1.000000000000000000, 0.000000000000000000, -3.491481338843133355E-15 ) ) ;
#95 = CIRCLE ( 'NONE', #142, 4.950000000000000178 ) ;
#96 = LINE ( 'NONE', #203, #270 ) ;
#97 =( NAMED_UNIT ( * ) PLANE_ANGLE_UNIT ( ) SI_UNIT ( $, .RADIAN. ) );
#98 = CIRCLE ( 'NONE', #284, 4.999999999999999112 ) ;
#99 = MECHANICAL_DESIGN_GEOMETRIC_PRESENTATION_REPRESENTATION (  '', ( #311 ), #289 ) ;
#100 = CARTESIAN_POINT ( 'NONE',  ( 8.428123209807732260E-14, -2.956187677958625630E-15, 24.13910427085457400 ) ) ;
#101 = FACE_OUTER_BOUND ( 'NONE', #277, .T. ) ;
#102 = EDGE_CURVE ( 'NONE', #312, #212, #95, .T. ) ;
#103 = CARTESIAN_POINT ( 'NONE',  ( 2.478951750578624304E-13, 4.999999999999990230, 71.00000000000000000 ) ) ;
#104 = DIRECTION ( 'NONE',  ( -3.491481338843133355E-15, 1.224646799147353207E-16, -1.000000000000000000 ) ) ;
#105 = DIRECTION ( 'NONE',  ( 3.491481338843133355E-15, -1.224646799147353207E-16, 1.000000000000000000 ) ) ;
#106 = ADVANCED_FACE ( 'NONE', ( #101 ), #282, .T. ) ;
#107 = ORIENTED_EDGE ( 'NONE', *, *, #183, .T. ) ;
#108 = ORIENTED_EDGE ( 'NONE', *, *, #132, .T. ) ;
#109 = AXIS2_PLACEMENT_3D ( 'NONE', #73, #199, #302 ) ;
#110 = ORIENTED_EDGE ( 'NONE', *, *, #197, .F. ) ;
#111 =( NAMED_UNIT ( * ) SI_UNIT ( $, .STERADIAN. ) SOLID_ANGLE_UNIT ( ) );
#112 = LINE ( 'NONE', #141, #218 ) ;
#113 = ORIENTED_EDGE ( 'NONE', *, *, #265, .F. ) ;
#114 = FILL_AREA_STYLE_COLOUR ( '', #211 ) ;
#115 = MANIFOLD_SOLID_BREP ( 'Corps-Déplacer/Copier1[2]', #191 ) ;
#116 = CARTESIAN_POINT ( 'NONE',  ( 8.379555213223520053E-14, -4.950000000000001954, 24.00000000000000000 ) ) ;
#117 = UNCERTAINTY_MEASURE_WITH_UNIT (LENGTH_MEASURE( 1.000000000000000082E-05 ), #276, 'distance_accuracy_value', 'NONE');
#118 = FACE_OUTER_BOUND ( 'NONE', #41, .T. ) ;
#119 = VERTEX_POINT ( 'NONE', #286 ) ;
#120 = CIRCLE ( 'NONE', #35, 4.949999999999999289 ) ;
#121 = FILL_AREA_STYLE ('',( #201 ) ) ;
#122 = ADVANCED_FACE ( 'NONE', ( #50 ), #341, .T. ) ;
#123 = CARTESIAN_POINT ( 'NONE',  ( 2.501920067869003115E-13, -4.000000000000018652, 72.00000000000000000 ) ) ;
#124 = DIRECTION ( 'NONE',  ( 0.000000000000000000, 1.000000000000000000, 0.000000000000000000 ) ) ;
#125 = FACE_OUTER_BOUND ( 'NONE', #274, .T. ) ;
#126 = DIRECTION ( 'NONE',  ( 1.000000000000000000, 0.000000000000000000, -3.491481338843133355E-15 ) ) ;
#127 = CARTESIAN_POINT ( 'NONE',  ( 8.379555213223520053E-14, -2.939152317953647894E-15, 24.00000000000000000 ) ) ;
#128 = VECTOR ( 'NONE', #244, 1000.000000000000000 ) ;
#129 = CARTESIAN_POINT ( 'NONE',  ( 2.478951750578624304E-13, -8.694992273946206563E-15, 71.00000000000000000 ) ) ;
#130 = DIRECTION ( 'NONE',  ( 3.491481338843133355E-15, -1.224646799147353207E-16, 1.000000000000000000 ) ) ;
#131 = EDGE_CURVE ( 'NONE', #83, #15, #297, .T. ) ;
#132 = EDGE_CURVE ( 'NONE', #315, #30, #135, .T. ) ;
#133 = DIRECTION ( 'NONE',  ( 0.000000000000000000, 0.000000000000000000, 1.000000000000000000 ) ) ;
#134 =( LENGTH_UNIT ( ) NAMED_UNIT ( * ) SI_UNIT ( .MILLI., .METRE. ) );
#135 = CIRCLE ( 'NONE', #26, 4.000000000000009770 ) ;
#136 = CARTESIAN_POINT ( 'NONE',  ( 8.379555213223520053E-14, 0.000000000000000000, 24.00000000000000000 ) ) ;
#137 = ORIENTED_EDGE ( 'NONE', *, *, #338, .T. ) ;
#138 = CIRCLE ( 'NONE', #304, 4.950000000000000178 ) ;
#139 = LINE ( 'NONE', #321, #128 ) ;
#140 = ORIENTED_EDGE ( 'NONE', *, *, #177, .T. ) ;
#141 = CARTESIAN_POINT ( 'NONE',  ( 4.950000000000082778, 0.000000000000000000, 23.99999999999998224 ) ) ;
#142 = AXIS2_PLACEMENT_3D ( 'NONE', #13, #224, #94 ) ;
#143 = VECTOR ( 'NONE', #149, 1000.000000000000000 ) ;
#144 = DIRECTION ( 'NONE',  ( 3.327098416510780904E-15, 0.3382550599108882228, 0.9410544694355802431 ) ) ;
#145 = DIRECTION ( 'NONE',  ( -3.491481338843133355E-15, 1.224646799147349263E-16, -1.000000000000000000 ) ) ;
#146 = ORIENTED_EDGE ( 'NONE', *, *, #102, .F. ) ;
#147 = CYLINDRICAL_SURFACE ( 'NONE', #288, 4.999999999999999112 ) ;
#148 = DIRECTION ( 'NONE',  ( -3.491481338843133355E-15, 1.224646799147353207E-16, -1.000000000000000000 ) ) ;
#149 = DIRECTION ( 'NONE',  ( 3.491481338843133355E-15, -0.000000000000000000, 1.000000000000000000 ) ) ;
#150 = LINE ( 'NONE', #48, #54 ) ;
#151 = CARTESIAN_POINT ( 'NONE',  ( 1.667005269775435144E-13, -4.999999999999996447, 24.13910427085457400 ) ) ;
#152 = SURFACE_STYLE_USAGE ( .BOTH. , #259 ) ;
#153 = SURFACE_STYLE_FILL_AREA ( #283 ) ;
#154 = PRODUCT_RELATED_PRODUCT_CATEGORY ( 'part', '', ( #223 ) ) ;
#155 = AXIS2_PLACEMENT_3D ( 'NONE', #76, #148, #198 ) ;
#156 = AXIS2_PLACEMENT_3D ( 'NONE', #269, #195, #162 ) ;
#157 = VECTOR ( 'NONE', #144, 1000.000000000000000 ) ;
#158 = ORIENTED_EDGE ( 'NONE', *, *, #131, .T. ) ;
#159 = CARTESIAN_POINT ( 'NONE',  ( 0.000000000000000000, 0.000000000000000000, 0.000000000000000000 ) ) ;
#160 = ORIENTED_EDGE ( 'NONE', *, *, #132, .F. ) ;
#161 =( NAMED_UNIT ( * ) PLANE_ANGLE_UNIT ( ) SI_UNIT ( $, .RADIAN. ) );
#162 = DIRECTION ( 'NONE',  ( -1.000000000000000000, 0.000000000000000000, 3.491481338843133355E-15 ) ) ;
#163 = EDGE_LOOP ( 'NONE', ( #66, #243, #291, #299 ) ) ;
#164 = EDGE_CURVE ( 'NONE', #15, #83, #296, .T. ) ;
#165 = MECHANICAL_DESIGN_GEOMETRIC_PRESENTATION_REPRESENTATION (  '', ( #226 ), #258 ) ;
#166 = AXIS2_PLACEMENT_3D ( 'NONE', #42, #92, #256 ) ;
#167 = PRODUCT_DEFINITION ( 'UNKNOWN', '', #37, #2 ) ;
#168 = ORIENTED_EDGE ( 'NONE', *, *, #298, .F. ) ;
#169 = ADVANCED_FACE ( 'NONE', ( #234 ), #241, .T. ) ;
#170 = EDGE_LOOP ( 'NONE', ( #140, #251, #89, #69 ) ) ;
#171 = DIRECTION ( 'NONE',  ( 3.491481338843133355E-15, -1.224646799147353207E-16, 1.000000000000000000 ) ) ;
#172 = LINE ( 'NONE', #103, #55 ) ;
#173 = AXIS2_PLACEMENT_3D ( 'NONE', #295, #33, #187 ) ;
#174 = CARTESIAN_POINT ( 'NONE',  ( 8.428123209807732260E-14, 4.999999999999991118, 24.13910427085457400 ) ) ;
#175 = DIRECTION ( 'NONE',  ( -3.491481338843133355E-15, 1.224646799147353207E-16, -1.000000000000000000 ) ) ;
#176 = DIRECTION ( 'NONE',  ( 1.000000000000000000, 0.000000000000000000, -3.504491870660217348E-15 ) ) ;
#177 = EDGE_CURVE ( 'NONE', #212, #312, #138, .T. ) ;
#178 = DIRECTION ( 'NONE',  ( 0.000000000000000000, 1.000000000000000000, 0.000000000000000000 ) ) ;
#179 = AXIS2_PLACEMENT_3D ( 'NONE', #328, #206, #176 ) ;
#180 = FILL_AREA_STYLE_COLOUR ( '', #242 ) ;
#181 = CARTESIAN_POINT ( 'NONE',  ( 8.379555213223520053E-14, -2.939152317953647894E-15, 24.00000000000000000 ) ) ;
#182 = DIRECTION ( 'NONE',  ( 3.491481338843133355E-15, -0.000000000000000000, 1.000000000000000000 ) ) ;
#183 = EDGE_CURVE ( 'NONE', #290, #325, #190, .T. ) ;
#184 = DIRECTION ( 'NONE',  ( 0.000000000000000000, -1.000000000000000000, 0.000000000000000000 ) ) ;
#185 =( GEOMETRIC_REPRESENTATION_CONTEXT ( 3 ) GLOBAL_UNCERTAINTY_ASSIGNED_CONTEXT ( ( #36 ) ) GLOBAL_UNIT_ASSIGNED_CONTEXT ( ( #305, #252, #74 ) ) REPRESENTATION_CONTEXT ( 'NONE', 'WORKASPACE' ) );
#186 = ORIENTED_EDGE ( 'NONE', *, *, #102, .T. ) ;
#187 = DIRECTION ( 'NONE',  ( 1.000000000000000000, 0.000000000000000000, -3.504491870660217348E-15 ) ) ;
#188 = CARTESIAN_POINT ( 'NONE',  ( 0.000000000000000000, 0.000000000000000000, 0.000000000000000000 ) ) ;
#189 = ADVANCED_FACE ( 'NONE', ( #319 ), #8, .T. ) ;
#190 = LINE ( 'NONE', #116, #62 ) ;
#191 = CLOSED_SHELL ( 'NONE', ( #5, #189, #205, #314 ) ) ;
#192 = LINE ( 'NONE', #271, #157 ) ;
#193 = ORIENTED_EDGE ( 'NONE', *, *, #323, .F. ) ;
#194 = EDGE_CURVE ( 'NONE', #30, #3, #139, .T. ) ;
#195 = DIRECTION ( 'NONE',  ( -3.491481338843133355E-15, 0.000000000000000000, -1.000000000000000000 ) ) ;
#196 = ORIENTED_EDGE ( 'NONE', *, *, #51, .F. ) ;
#197 = EDGE_CURVE ( 'NONE', #58, #340, #192, .T. ) ;
#198 = DIRECTION ( 'NONE',  ( 4.275831445896958607E-31, 1.000000000000000000, 1.224646799147353207E-16 ) ) ;
#199 = DIRECTION ( 'NONE',  ( 3.491481338843133355E-15, -1.224646799147353207E-16, 1.000000000000000000 ) ) ;
#200 = DIRECTION ( 'NONE',  ( -3.491481338843133355E-15, 1.224646799147353207E-16, -1.000000000000000000 ) ) ;
#201 = FILL_AREA_STYLE_COLOUR ( '', #34 ) ;
#202 = AXIS2_PLACEMENT_3D ( 'NONE', #294, #31, #1 ) ;
#203 = CARTESIAN_POINT ( 'NONE',  ( 2.137915722948478778E-30, 4.999999999999999112, 6.123233995736765296E-16 ) ) ;
#204 = CARTESIAN_POINT ( 'NONE',  ( -4.949999999999913136, 6.062001655779395553E-16, 24.00000000000001776 ) ) ;
#205 = ADVANCED_FACE ( 'NONE', ( #118 ), #217, .F. ) ;
#206 = DIRECTION ( 'NONE',  ( 3.491481338843133355E-15, -0.000000000000000000, 1.000000000000000000 ) ) ;
#207 = ADVANCED_FACE ( 'NONE', ( #86 ), #29, .T. ) ;
#208 = AXIS2_PLACEMENT_3D ( 'NONE', #52, #235, #56 ) ;
#209 = AXIS2_PLACEMENT_3D ( 'NONE', #332, #221, #333 ) ;
#210 = ORIENTED_EDGE ( 'NONE', *, *, #298, .T. ) ;
#211 = COLOUR_RGB ( '',1.000000000000000000, 1.000000000000000000, 1.000000000000000000 ) ;
#212 = VERTEX_POINT ( 'NONE', #317 ) ;
#213 = ORIENTED_EDGE ( 'NONE', *, *, #233, .F. ) ;
#214 = FILL_AREA_STYLE ('',( #114 ) ) ;
#215 = EDGE_CURVE ( 'NONE', #212, #83, #112, .T. ) ;
#216 = DIRECTION ( 'NONE',  ( 3.285674118869253927E-15, -0.3382550599108884448, 0.9410544694355801321 ) ) ;
#217 = PLANE ( 'NONE',  #156 ) ;
#218 = VECTOR ( 'NONE', #247, 1000.000000000000000 ) ;
#219 = AXIS2_PLACEMENT_3D ( 'NONE', #159, #133, #22 ) ;
#220 = DIRECTION ( 'NONE',  ( -2.468850131082279149E-15, 0.7071067811865435759, -0.7071067811865513475 ) ) ;
#221 = DIRECTION ( 'NONE',  ( -3.491481338843133355E-15, 1.224646799147349263E-16, -1.000000000000000000 ) ) ;
#222 = CARTESIAN_POINT ( 'NONE',  ( 8.428123209807732260E-14, -2.956187677958625630E-15, 24.13910427085457400 ) ) ;
#223 = PRODUCT ( '42591', '42591', '', ( #339 ) ) ;
#224 = DIRECTION ( 'NONE',  ( 3.491481338843133355E-15, -0.000000000000000000, 1.000000000000000000 ) ) ;
#225 = DIRECTION ( 'NONE',  ( 1.687538997430237626E-14, -1.000000000000000000, 0.000000000000000000 ) ) ;
#226 = STYLED_ITEM ( 'NONE', ( #229 ), #115 ) ;
#227 = MANIFOLD_SOLID_BREP ( 'Corps-Déplacer/Copier1[1]', #267 ) ;
#228 = EDGE_CURVE ( 'NONE', #315, #119, #172, .T. ) ;
#229 = PRESENTATION_STYLE_ASSIGNMENT (( #152 ) ) ;
#230 = CARTESIAN_POINT ( 'NONE',  ( 2.496409157272839907E-13, 4.000000000000000888, 72.00000000000000000 ) ) ;
#231 = ORIENTED_EDGE ( 'NONE', *, *, #228, .F. ) ;
#232 = EDGE_LOOP ( 'NONE', ( #268, #160, #266, #300 ) ) ;
#233 = EDGE_CURVE ( 'NONE', #290, #58, #120, .T. ) ;
#234 = FACE_OUTER_BOUND ( 'NONE', #232, .T. ) ;
#235 = DIRECTION ( 'NONE',  ( -3.491481338843133355E-15, 1.224646799147349263E-16, -1.000000000000000000 ) ) ;
#236 = ADVANCED_BREP_SHAPE_REPRESENTATION ( '42591', ( #227, #115, #219 ), #78 ) ;
#237 = AXIS2_PLACEMENT_3D ( 'NONE', #129, #70, #225 ) ;
#238 = SURFACE_STYLE_USAGE ( .BOTH. , #263 ) ;
#239 = EDGE_CURVE ( 'NONE', #340, #325, #254, .T. ) ;
#240 = DIRECTION ( 'NONE',  ( 1.000000000000000000, 0.000000000000000000, -3.504491870660218926E-15 ) ) ;
#241 = CONICAL_SURFACE ( 'NONE', #208, 4.999999999999999112, 0.7853981633974426169 ) ;
#242 = COLOUR_RGB ( '',1.000000000000000000, 1.000000000000000000, 1.000000000000000000 ) ;
#243 = ORIENTED_EDGE ( 'NONE', *, *, #197, .T. ) ;
#244 = DIRECTION ( 'NONE',  ( -2.382254525458730486E-15, -0.7071067811865434649, -0.7071067811865516806 ) ) ;
#245 = ORIENTED_EDGE ( 'NONE', *, *, #239, .F. ) ;
#246 = EDGE_CURVE ( 'NONE', #3, #119, #98, .T. ) ;
#247 = DIRECTION ( 'NONE',  ( 3.491481338843133355E-15, -0.000000000000000000, 1.000000000000000000 ) ) ;
#248 = CIRCLE ( 'NONE', #320, 4.949999999999999289 ) ;
#249 = AXIS2_PLACEMENT_3D ( 'NONE', #222, #175, #178 ) ;
#250 = DIRECTION ( 'NONE',  ( 1.000000000000000000, 0.000000000000000000, -3.491481338843133355E-15 ) ) ;
#251 = ORIENTED_EDGE ( 'NONE', *, *, #323, .T. ) ;
#252 =( NAMED_UNIT ( * ) PLANE_ANGLE_UNIT ( ) SI_UNIT ( $, .RADIAN. ) );
#253 = DIRECTION ( 'NONE',  ( 0.000000000000000000, 1.000000000000000000, 0.000000000000000000 ) ) ;
#254 = CIRCLE ( 'NONE', #249, 4.999999999999993783 ) ;
#255 = EDGE_LOOP ( 'NONE', ( #196, #335, #210, #113 ) ) ;
#256 = DIRECTION ( 'NONE',  ( -4.275831445896958607E-31, -1.000000000000000000, -1.224646799147353207E-16 ) ) ;
#257 = CARTESIAN_POINT ( 'NONE',  ( 8.464765389773207587E-14, 4.949999999999996625, 24.00000000000000000 ) ) ;
#258 =( GEOMETRIC_REPRESENTATION_CONTEXT ( 3 ) GLOBAL_UNCERTAINTY_ASSIGNED_CONTEXT ( ( #7 ) ) GLOBAL_UNIT_ASSIGNED_CONTEXT ( ( #308, #97, #19 ) ) REPRESENTATION_CONTEXT ( 'NONE', 'WORKASPACE' ) );
#259 = SURFACE_SIDE_STYLE ('',( #303 ) ) ;
#260 = CIRCLE ( 'NONE', #109, 4.000000000000009770 ) ;
#261 = CARTESIAN_POINT ( 'NONE',  ( -4.950000000000000178, 6.062001655779450773E-16, 1.728283262727351011E-14 ) ) ;
#262 = CYLINDRICAL_SURFACE ( 'NONE', #179, 4.949999999999998401 ) ;
#263 = SURFACE_SIDE_STYLE ('',( #153 ) ) ;
#264 = APPLICATION_PROTOCOL_DEFINITION ( 'draft international standard', 'automotive_design', 1998, #24 ) ;
#265 = EDGE_CURVE ( 'NONE', #325, #340, #337, .T. ) ;
#266 = ORIENTED_EDGE ( 'NONE', *, *, #228, .T. ) ;
#267 = CLOSED_SHELL ( 'NONE', ( #106, #122, #292, #21, #336, #207, #38, #169 ) ) ;
#268 = ORIENTED_EDGE ( 'NONE', *, *, #194, .F. ) ;
#269 = CARTESIAN_POINT ( 'NONE',  ( 8.379555213223520053E-14, 4.949999999999996625, 24.00000000000000000 ) ) ;
#270 = VECTOR ( 'NONE', #93, 1000.000000000000000 ) ;
#271 = CARTESIAN_POINT ( 'NONE',  ( 8.440175229781314077E-14, 4.949999999999996625, 24.00000000000000000 ) ) ;
#272 = EDGE_LOOP ( 'NONE', ( #68, #9, #245, #168 ) ) ;
#273 = PRODUCT_DEFINITION_SHAPE ( 'NONE', 'NONE',  #167 ) ;
#274 = EDGE_LOOP ( 'NONE', ( #110, #213, #107, #306 ) ) ;
#275 = CARTESIAN_POINT ( 'NONE',  ( -4.949999999999914913, 6.062001655779396539E-16, 24.00000000000001776 ) ) ;
#276 =( LENGTH_UNIT ( ) NAMED_UNIT ( * ) SI_UNIT ( .MILLI., .METRE. ) );
#277 = EDGE_LOOP ( 'NONE', ( #322, #61, #25, #231 ) ) ;
#278 = PLANE ( 'NONE',  #65 ) ;
#279 = DIRECTION ( 'NONE',  ( 0.000000000000000000, -1.000000000000000000, 0.000000000000000000 ) ) ;
#280 = APPLICATION_PROTOCOL_DEFINITION ( 'draft international standard', 'automotive_design', 1998, #53 ) ;
#281 = DIRECTION ( 'NONE',  ( -3.491481338843133355E-15, 1.224646799147353207E-16, -1.000000000000000000 ) ) ;
#282 = CONICAL_SURFACE ( 'NONE', #209, 4.999999999999999112, 0.7853981633974426169 ) ;
#283 = FILL_AREA_STYLE ('',( #180 ) ) ;
#284 = AXIS2_PLACEMENT_3D ( 'NONE', #40, #145, #45 ) ;
#285 = PRESENTATION_LAYER_ASSIGNMENT (  '', '', ( #311 ) ) ;
#286 = CARTESIAN_POINT ( 'NONE',  ( 1.660882035779698891E-13, 4.999999999999990230, 71.00000000000000000 ) ) ;
#287 = AXIS2_PLACEMENT_3D ( 'NONE', #136, #20, #240 ) ;
#288 = AXIS2_PLACEMENT_3D ( 'NONE', #18, #200, #12 ) ;
#289 =( GEOMETRIC_REPRESENTATION_CONTEXT ( 3 ) GLOBAL_UNCERTAINTY_ASSIGNED_CONTEXT ( ( #32 ) ) GLOBAL_UNIT_ASSIGNED_CONTEXT ( ( #134, #161, #111 ) ) REPRESENTATION_CONTEXT ( 'NONE', 'WORKASPACE' ) );
#290 = VERTEX_POINT ( 'NONE', #90 ) ;
#291 = ORIENTED_EDGE ( 'NONE', *, *, #239, .T. ) ;
#292 = ADVANCED_FACE ( 'NONE', ( #331 ), #147, .T. ) ;
#293 = ORIENTED_EDGE ( 'NONE', *, *, #63, .T. ) ;
#294 = CARTESIAN_POINT ( 'NONE',  ( 0.000000000000000000, 0.000000000000000000, 0.000000000000000000 ) ) ;
#295 = CARTESIAN_POINT ( 'NONE',  ( 8.379555213223520053E-14, 0.000000000000000000, 24.00000000000000000 ) ) ;
#296 = CIRCLE ( 'NONE', #287, 4.949999999999996625 ) ;
#297 = CIRCLE ( 'NONE', #49, 4.949999999999996625 ) ;
#298 = EDGE_CURVE ( 'NONE', #119, #340, #96, .T. ) ;
#299 = ORIENTED_EDGE ( 'NONE', *, *, #183, .F. ) ;
#300 = ORIENTED_EDGE ( 'NONE', *, *, #246, .F. ) ;
#301 = PLANE ( 'NONE',  #155 ) ;
#302 = DIRECTION ( 'NONE',  ( 0.000000000000000000, -1.000000000000000000, 0.000000000000000000 ) ) ;
#303 = SURFACE_STYLE_FILL_AREA ( #121 ) ;
#304 = AXIS2_PLACEMENT_3D ( 'NONE', #188, #60, #250 ) ;
#305 =( LENGTH_UNIT ( ) NAMED_UNIT ( * ) SI_UNIT ( .MILLI., .METRE. ) );
#306 = ORIENTED_EDGE ( 'NONE', *, *, #265, .T. ) ;
#307 = PLANE ( 'NONE',  #166 ) ;
#308 =( LENGTH_UNIT ( ) NAMED_UNIT ( * ) SI_UNIT ( .MILLI., .METRE. ) );
#309 = FACE_OUTER_BOUND ( 'NONE', #170, .T. ) ;
#310 = CIRCLE ( 'NONE', #237, 4.999999999999999112 ) ;
#311 = STYLED_ITEM ( 'NONE', ( #80 ), #236 ) ;
#312 = VERTEX_POINT ( 'NONE', #261 ) ;
#313 = EDGE_LOOP ( 'NONE', ( #57, #146 ) ) ;
#314 = ADVANCED_FACE ( 'NONE', ( #71 ), #278, .F. ) ;
#315 = VERTEX_POINT ( 'NONE', #230 ) ;
#316 = ORIENTED_EDGE ( 'NONE', *, *, #164, .T. ) ;
#317 = CARTESIAN_POINT ( 'NONE',  ( 4.950000000000000178, 0.000000000000000000, -1.728283262727351011E-14 ) ) ;
#318 = EDGE_CURVE ( 'NONE', #119, #3, #310, .T. ) ;
#319 = FACE_OUTER_BOUND ( 'NONE', #39, .T. ) ;
#320 = AXIS2_PLACEMENT_3D ( 'NONE', #181, #11, #253 ) ;
#321 = CARTESIAN_POINT ( 'NONE',  ( 2.485074984574361313E-13, -5.000000000000007994, 71.00000000000000000 ) ) ;
#322 = ORIENTED_EDGE ( 'NONE', *, *, #338, .F. ) ;
#323 = EDGE_CURVE ( 'NONE', #312, #15, #79, .T. ) ;
#324 = DIRECTION ( 'NONE',  ( 0.000000000000000000, 1.000000000000000000, 0.000000000000000000 ) ) ;
#325 = VERTEX_POINT ( 'NONE', #151 ) ;
#326 = FACE_OUTER_BOUND ( 'NONE', #28, .T. ) ;
#327 = CARTESIAN_POINT ( 'NONE',  ( 9.620620753268158178E-31, 4.950000000000000178, 2.755455298081544778E-16 ) ) ;
#328 = CARTESIAN_POINT ( 'NONE',  ( 8.379555213223520053E-14, 0.000000000000000000, 24.00000000000000000 ) ) ;
#329 = AXIS2_PLACEMENT_3D ( 'NONE', #127, #130, #279 ) ;
#330 =( NAMED_UNIT ( * ) PLANE_ANGLE_UNIT ( ) SI_UNIT ( $, .RADIAN. ) );
#331 = FACE_OUTER_BOUND ( 'NONE', #272, .T. ) ;
#332 = CARTESIAN_POINT ( 'NONE',  ( 2.478951750578624304E-13, -8.694992273946206563E-15, 71.00000000000000000 ) ) ;
#333 = DIRECTION ( 'NONE',  ( 0.000000000000000000, 1.000000000000000000, 0.000000000000000000 ) ) ;
#334 = SURFACE_SIDE_STYLE ('',( #64 ) ) ;
#335 = ORIENTED_EDGE ( 'NONE', *, *, #246, .T. ) ;
#336 = ADVANCED_FACE ( 'NONE', ( #326 ), #307, .T. ) ;
#337 = CIRCLE ( 'NONE', #44, 4.999999999999993783 ) ;
#338 = EDGE_CURVE ( 'NONE', #30, #315, #260, .T. ) ;
#339 = PRODUCT_CONTEXT ( 'NONE', #53, 'mechanical' ) ;
#340 = VERTEX_POINT ( 'NONE', #174 ) ;
#341 = CONICAL_SURFACE ( 'NONE', #87, 4.949999999999999289, 0.3450620389298258428 ) ;
#342 = DIRECTION ( 'NONE',  ( 0.000000000000000000, -1.000000000000000000, 0.000000000000000000 ) ) ;
#343 = EDGE_LOOP ( 'NONE', ( #17, #293 ) ) ;
ENDSEC;
END-ISO-10303-21;
