ISO-10303-21;
HEADER;
FILE_DESCRIPTION (( 'STEP AP214' ),
    '1' );
FILE_NAME ('42590.step',
    '2024-04-04T09:33:02',
    ( '' ),
    ( '' ),
    'SwSTEP 2.0',
    'SolidWorks 2022',
    '' );
FILE_SCHEMA (( 'AUTOMOTIVE_DESIGN' ));
ENDSEC;

DATA;
#1 = EDGE_CURVE ( 'NONE', #243, #275, #324, .T. ) ;
#2 = LINE ( 'NONE', #290, #33 ) ;
#3 = DIRECTION ( 'NONE',  ( 0.000000000000000000, -1.000000000000000000, 0.000000000000000000 ) ) ;
#4 = ORIENTED_EDGE ( 'NONE', *, *, #57, .F. ) ;
#5 = VERTEX_POINT ( 'NONE', #291 ) ;
#6 = PLANE ( 'NONE',  #285 ) ;
#7 = FACE_OUTER_BOUND ( 'NONE', #188, .T. ) ;
#8 = CONICAL_SURFACE ( 'NONE', #191, 3.999999999999994671, 0.7853981633974433940 ) ;
#9 = DIRECTION ( 'NONE',  ( 0.000000000000000000, 1.000000000000000000, 0.000000000000000000 ) ) ;
#10 = VERTEX_POINT ( 'NONE', #296 ) ;
#11 = FILL_AREA_STYLE_COLOUR ( '', #161 ) ;
#12 =( NAMED_UNIT ( * ) SI_UNIT ( $, .STERADIAN. ) SOLID_ANGLE_UNIT ( ) );
#13 = VECTOR ( 'NONE', #78, 1000.000000000000000 ) ;
#14 = AXIS2_PLACEMENT_3D ( 'NONE', #170, #41, #40 ) ;
#15 = ADVANCED_FACE ( 'NONE', ( #157 ), #102, .F. ) ;
#16 = DIRECTION ( 'NONE',  ( 3.491481338843133355E-15, -1.224646799147353207E-16, 1.000000000000000000 ) ) ;
#17 = ORIENTED_EDGE ( 'NONE', *, *, #287, .F. ) ;
#18 = DIRECTION ( 'NONE',  ( 0.000000000000000000, -1.000000000000000000, 0.000000000000000000 ) ) ;
#19 = ORIENTED_EDGE ( 'NONE', *, *, #160, .T. ) ;
#20 = DIRECTION ( 'NONE',  ( 3.491481338843133355E-15, -0.000000000000000000, 1.000000000000000000 ) ) ;
#21 = ORIENTED_EDGE ( 'NONE', *, *, #160, .F. ) ;
#22 = UNCERTAINTY_MEASURE_WITH_UNIT (LENGTH_MEASURE( 1.000000000000000082E-05 ), #72, 'distance_accuracy_value', 'NONE');
#23 = ORIENTED_EDGE ( 'NONE', *, *, #42, .F. ) ;
#24 = CYLINDRICAL_SURFACE ( 'NONE', #198, 3.999999999999994671 ) ;
#25 = DIRECTION ( 'NONE',  ( 4.275831445896959482E-31, 1.000000000000000000, 1.224646799147353454E-16 ) ) ;
#26 = VECTOR ( 'NONE', #266, 1000.000000000000000 ) ;
#27 = CIRCLE ( 'NONE', #214, 3.999999999999992450 ) ;
#28 = DIRECTION ( 'NONE',  ( 4.275831445896959482E-31, 1.000000000000000000, 1.224646799147353454E-16 ) ) ;
#29 = EDGE_CURVE ( 'NONE', #339, #321, #336, .T. ) ;
#30 = CARTESIAN_POINT ( 'NONE',  ( 1.424334175073076275E-13, 3.999999999999987121, 62.19999999999998153 ) ) ;
#31 = VERTEX_POINT ( 'NONE', #111 ) ;
#32 = DIRECTION ( 'NONE',  ( 1.000000000000000000, 0.000000000000000000, -3.491481338843133355E-15 ) ) ;
#33 = VECTOR ( 'NONE', #103, 1000.000000000000000 ) ;
#34 = CARTESIAN_POINT ( 'NONE',  ( -4.275831445896957731E-31, 3.950000000000000178, -1.224646799147353207E-16 ) ) ;
#35 = ORIENTED_EDGE ( 'NONE', *, *, #300, .F. ) ;
#36 = DIRECTION ( 'NONE',  ( 3.491481338843133355E-15, -1.224646799147353207E-16, 1.000000000000000000 ) ) ;
#37 = CARTESIAN_POINT ( 'NONE',  ( 6.769669573857242339E-14, -2.374480448363632493E-15, 19.38910427085457044 ) ) ;
#38 = ORIENTED_EDGE ( 'NONE', *, *, #1, .F. ) ;
#39 = EDGE_CURVE ( 'NONE', #250, #105, #109, .T. ) ;
#40 = DIRECTION ( 'NONE',  ( 0.000000000000000000, 1.000000000000000000, 0.000000000000000000 ) ) ;
#41 = DIRECTION ( 'NONE',  ( -3.491481338843133355E-15, 1.224646799147341374E-16, -1.000000000000000000 ) ) ;
#42 = EDGE_CURVE ( 'NONE', #321, #339, #208, .T. ) ;
#43 = DIRECTION ( 'NONE',  ( 4.275831445896958607E-31, 1.000000000000000000, 1.224646799147353207E-16 ) ) ;
#44 = CIRCLE ( 'NONE', #257, 3.999999999999992450 ) ;
#45 = MECHANICAL_DESIGN_GEOMETRIC_PRESENTATION_REPRESENTATION (  '', ( #222 ), #110 ) ;
#46 = SURFACE_STYLE_USAGE ( .BOTH. , #47 ) ;
#47 = SURFACE_SIDE_STYLE ('',( #140 ) ) ;
#48 = CARTESIAN_POINT ( 'NONE',  ( -3.950000000000000178, 4.837354856632086473E-16, 1.379135128843037991E-14 ) ) ;
#49 = CLOSED_SHELL ( 'NONE', ( #219, #82, #322, #15 ) ) ;
#50 = PRESENTATION_LAYER_ASSIGNMENT (  '', '', ( #134 ) ) ;
#51 = CARTESIAN_POINT ( 'NONE',  ( 1.429232762269665176E-13, -4.000000000000002665, 62.19999999999998153 ) ) ;
#52 = DIRECTION ( 'NONE',  ( 0.000000000000000000, 1.000000000000000000, 0.000000000000000000 ) ) ;
#53 = DIRECTION ( 'NONE',  ( -3.491481338843133355E-15, 1.224646799147341374E-16, -1.000000000000000000 ) ) ;
#54 = ORIENTED_EDGE ( 'NONE', *, *, #329, .F. ) ;
#55 = ORIENTED_EDGE ( 'NONE', *, *, #88, .F. ) ;
#56 = CARTESIAN_POINT ( 'NONE',  ( 6.721101577273030131E-14, -2.357445088358654363E-15, 19.24999999999999645 ) ) ;
#57 = EDGE_CURVE ( 'NONE', #31, #337, #184, .T. ) ;
#58 = AXIS2_PLACEMENT_3D ( 'NONE', #299, #173, #242 ) ;
#59 = CARTESIAN_POINT ( 'NONE',  ( 6.721101577273030131E-14, -2.357445088358654363E-15, 19.24999999999999645 ) ) ;
#60 = DIRECTION ( 'NONE',  ( 3.491481338843133355E-15, -0.000000000000000000, 1.000000000000000000 ) ) ;
#61 = ORIENTED_EDGE ( 'NONE', *, *, #175, .F. ) ;
#62 = DIRECTION ( 'NONE',  ( -3.491481338843133355E-15, 1.224646799147341374E-16, -1.000000000000000000 ) ) ;
#63 = DIRECTION ( 'NONE',  ( 3.491481338843133355E-15, -0.000000000000000000, 1.000000000000000000 ) ) ;
#64 = CARTESIAN_POINT ( 'NONE',  ( 6.721101577273030131E-14, 3.949999999999997957, 19.24999999999999645 ) ) ;
#65 = CIRCLE ( 'NONE', #87, 3.950000000000000178 ) ;
#66 =( NAMED_UNIT ( * ) PLANE_ANGLE_UNIT ( ) SI_UNIT ( $, .RADIAN. ) );
#67 = EDGE_CURVE ( 'NONE', #339, #105, #133, .T. ) ;
#68 = FACE_OUTER_BOUND ( 'NONE', #136, .T. ) ;
#69 = VECTOR ( 'NONE', #213, 1000.000000000000000 ) ;
#70 = VECTOR ( 'NONE', #255, 1000.000000000000114 ) ;
#71 = AXIS2_PLACEMENT_3D ( 'NONE', #268, #277, #335 ) ;
#72 =( LENGTH_UNIT ( ) NAMED_UNIT ( * ) SI_UNIT ( .MILLI., .METRE. ) );
#73 = CYLINDRICAL_SURFACE ( 'NONE', #141, 3.949999999999998845 ) ;
#74 = ORIENTED_EDGE ( 'NONE', *, *, #333, .F. ) ;
#75 = CARTESIAN_POINT ( 'NONE',  ( 0.000000000000000000, 0.000000000000000000, 0.000000000000000000 ) ) ;
#76 = EDGE_LOOP ( 'NONE', ( #55, #314, #180, #21 ) ) ;
#77 = LINE ( 'NONE', #127, #338 ) ;
#78 = DIRECTION ( 'NONE',  ( -2.382254525458728908E-15, -0.7071067811865440200, -0.7071067811865511255 ) ) ;
#79 = DIRECTION ( 'NONE',  ( -4.275831445896958607E-31, -1.000000000000000000, -1.224646799147353207E-16 ) ) ;
#80 = AXIS2_PLACEMENT_3D ( 'NONE', #239, #63, #32 ) ;
#81 = CYLINDRICAL_SURFACE ( 'NONE', #204, 3.949999999999998845 ) ;
#82 = ADVANCED_FACE ( 'NONE', ( #135 ), #81, .T. ) ;
#83 = ORIENTED_EDGE ( 'NONE', *, *, #215, .T. ) ;
#84 = ORIENTED_EDGE ( 'NONE', *, *, #264, .F. ) ;
#85 = ORIENTED_EDGE ( 'NONE', *, *, #233, .F. ) ;
#86 = SURFACE_STYLE_USAGE ( .BOTH. , #332 ) ;
#87 = AXIS2_PLACEMENT_3D ( 'NONE', #145, #95, #311 ) ;
#88 = EDGE_CURVE ( 'NONE', #275, #5, #210, .T. ) ;
#89 = FACE_OUTER_BOUND ( 'NONE', #343, .T. ) ;
#90 = ORIENTED_EDGE ( 'NONE', *, *, #29, .T. ) ;
#91 = CARTESIAN_POINT ( 'NONE',  ( 2.171701392760428316E-13, 3.999999999999987121, 62.19999999999998153 ) ) ;
#92 =( NAMED_UNIT ( * ) PLANE_ANGLE_UNIT ( ) SI_UNIT ( $, .RADIAN. ) );
#93 =( LENGTH_UNIT ( ) NAMED_UNIT ( * ) SI_UNIT ( .MILLI., .METRE. ) );
#94 =( GEOMETRIC_REPRESENTATION_CONTEXT ( 3 ) GLOBAL_UNCERTAINTY_ASSIGNED_CONTEXT ( ( #174 ) ) GLOBAL_UNIT_ASSIGNED_CONTEXT ( ( #252, #92, #150 ) ) REPRESENTATION_CONTEXT ( 'NONE', 'WORKASPACE' ) );
#95 = DIRECTION ( 'NONE',  ( 3.491481338843133355E-15, -0.000000000000000000, 1.000000000000000000 ) ) ;
#96 = SURFACE_STYLE_FILL_AREA ( #226 ) ;
#97 = CARTESIAN_POINT ( 'NONE',  ( 6.794065285831244150E-14, 3.949999999999997957, 19.24999999999999645 ) ) ;
#98 = FACE_OUTER_BOUND ( 'NONE', #271, .T. ) ;
#99 = EDGE_LOOP ( 'NONE', ( #197, #90 ) ) ;
#100 = AXIS2_PLACEMENT_3D ( 'NONE', #284, #53, #153 ) ;
#101 = DIRECTION ( 'NONE',  ( -3.491481338843133355E-15, 1.224646799147353207E-16, -1.000000000000000000 ) ) ;
#102 = PLANE ( 'NONE',  #166 ) ;
#103 = DIRECTION ( 'NONE',  ( -3.491481338843133355E-15, 1.224646799147353207E-16, -1.000000000000000000 ) ) ;
#104 = DIRECTION ( 'NONE',  ( -3.491481338843133355E-15, 1.224646799147353207E-16, -1.000000000000000000 ) ) ;
#105 = VERTEX_POINT ( 'NONE', #328 ) ;
#106 = DIRECTION ( 'NONE',  ( -3.491481338843133355E-15, 0.000000000000000000, -1.000000000000000000 ) ) ;
#107 = AXIS2_PLACEMENT_3D ( 'NONE', #246, #16, #274 ) ;
#108 = CONICAL_SURFACE ( 'NONE', #317, 3.950000000000000178, 0.3450620389298092450 ) ;
#109 = LINE ( 'NONE', #165, #69 ) ;
#110 =( GEOMETRIC_REPRESENTATION_CONTEXT ( 3 ) GLOBAL_UNCERTAINTY_ASSIGNED_CONTEXT ( ( #22 ) ) GLOBAL_UNIT_ASSIGNED_CONTEXT ( ( #72, #66, #196 ) ) REPRESENTATION_CONTEXT ( 'NONE', 'WORKASPACE' ) );
#111 = CARTESIAN_POINT ( 'NONE',  ( 2.190076046592731416E-13, -3.199999999999994404, 63.00000000000000000 ) ) ;
#112 = ADVANCED_FACE ( 'NONE', ( #319 ), #132, .T. ) ;
#113 = PRESENTATION_STYLE_ASSIGNMENT (( #86 ) ) ;
#114 = EDGE_LOOP ( 'NONE', ( #218, #228 ) ) ;
#115 = LINE ( 'NONE', #91, #258 ) ;
#116 = ADVANCED_FACE ( 'NONE', ( #7 ), #272, .T. ) ;
#117 = ORIENTED_EDGE ( 'NONE', *, *, #215, .F. ) ;
#118 = DIRECTION ( 'NONE',  ( 1.000000000000000000, 0.000000000000000000, -3.513364001978344456E-15 ) ) ;
#119 = COLOUR_RGB ( '',0.8980392156862745390, 0.9176470588235293713, 0.9294117647058823817 ) ;
#120 = ORIENTED_EDGE ( 'NONE', *, *, #293, .F. ) ;
#121 = DIRECTION ( 'NONE',  ( -3.491481338843133355E-15, 1.224646799147341374E-16, -1.000000000000000000 ) ) ;
#122 = AXIS2_PLACEMENT_3D ( 'NONE', #59, #261, #3 ) ;
#123 = AXIS2_PLACEMENT_3D ( 'NONE', #137, #270, #220 ) ;
#124 = UNCERTAINTY_MEASURE_WITH_UNIT (LENGTH_MEASURE( 1.000000000000000082E-05 ), #143, 'distance_accuracy_value', 'NONE');
#125 = FACE_OUTER_BOUND ( 'NONE', #201, .T. ) ;
#126 = ORIENTED_EDGE ( 'NONE', *, *, #88, .T. ) ;
#127 = CARTESIAN_POINT ( 'NONE',  ( 3.950000000000065459, 0.000000000000000000, 19.24999999999998224 ) ) ;
#128 = ORIENTED_EDGE ( 'NONE', *, *, #57, .T. ) ;
#129 = CONICAL_SURFACE ( 'NONE', #14, 3.999999999999994671, 0.7853981633974433940 ) ;
#130 = CARTESIAN_POINT ( 'NONE',  ( 2.176599979957017722E-13, -4.000000000000002665, 62.19999999999998153 ) ) ;
#131 = EDGE_CURVE ( 'NONE', #105, #207, #44, .T. ) ;
#132 = PLANE ( 'NONE',  #256 ) ;
#133 = LINE ( 'NONE', #323, #181 ) ;
#134 = STYLED_ITEM ( 'NONE', ( #113 ), #177 ) ;
#135 = FACE_OUTER_BOUND ( 'NONE', #76, .T. ) ;
#136 = EDGE_LOOP ( 'NONE', ( #221, #235, #280, #85 ) ) ;
#137 = CARTESIAN_POINT ( 'NONE',  ( 6.721101577273030131E-14, 0.000000000000000000, 19.24999999999999645 ) ) ;
#138 = ADVANCED_FACE ( 'NONE', ( #68 ), #108, .T. ) ;
#139 = FILL_AREA_STYLE ('',( #249 ) ) ;
#140 = SURFACE_STYLE_FILL_AREA ( #302 ) ;
#141 = AXIS2_PLACEMENT_3D ( 'NONE', #278, #20, #118 ) ;
#142 = CARTESIAN_POINT ( 'NONE',  ( 1.429232762269665176E-13, -3.999999999999994671, 19.38910427085457044 ) ) ;
#143 =( LENGTH_UNIT ( ) NAMED_UNIT ( * ) SI_UNIT ( .MILLI., .METRE. ) );
#144 = ORIENTED_EDGE ( 'NONE', *, *, #39, .F. ) ;
#145 = CARTESIAN_POINT ( 'NONE',  ( 0.000000000000000000, 0.000000000000000000, 0.000000000000000000 ) ) ;
#146 = AXIS2_PLACEMENT_3D ( 'NONE', #149, #148, #25 ) ;
#147 = CARTESIAN_POINT ( 'NONE',  ( 2.171701392760428316E-13, -7.617303090696535366E-15, 62.19999999999998153 ) ) ;
#148 = DIRECTION ( 'NONE',  ( -3.491481338843133355E-15, 1.224646799147353207E-16, -1.000000000000000000 ) ) ;
#149 = CARTESIAN_POINT ( 'NONE',  ( 0.000000000000000000, 0.000000000000000000, 0.000000000000000000 ) ) ;
#150 =( NAMED_UNIT ( * ) SI_UNIT ( $, .STERADIAN. ) SOLID_ANGLE_UNIT ( ) );
#151 =( NAMED_UNIT ( * ) SI_UNIT ( $, .STERADIAN. ) SOLID_ANGLE_UNIT ( ) );
#152 = COLOUR_RGB ( '',0.8980392156862745390, 0.9176470588235293713, 0.9294117647058823817 ) ;
#153 = DIRECTION ( 'NONE',  ( -1.865174681370263619E-14, -1.000000000000000000, 0.000000000000000000 ) ) ;
#154 = PRODUCT_DEFINITION ( 'UNKNOWN', '', #200, #225 ) ;
#155 = FACE_OUTER_BOUND ( 'NONE', #172, .T. ) ;
#156 = APPLICATION_PROTOCOL_DEFINITION ( 'draft international standard', 'automotive_design', 1998, #217 ) ;
#157 = FACE_OUTER_BOUND ( 'NONE', #288, .T. ) ;
#158 = FACE_OUTER_BOUND ( 'NONE', #259, .T. ) ;
#159 = CARTESIAN_POINT ( 'NONE',  ( -3.949999999999931788, 4.837354856632043085E-16, 19.25000000000001066 ) ) ;
#160 = EDGE_CURVE ( 'NONE', #5, #10, #167, .T. ) ;
#161 = COLOUR_RGB ( '',0.8980392156862745390, 0.9176470588235293713, 0.9294117647058823817 ) ;
#162 = DIRECTION ( 'NONE',  ( 0.000000000000000000, 1.000000000000000000, 0.000000000000000000 ) ) ;
#163 = DIRECTION ( 'NONE',  ( 3.327098416510798259E-15, 0.3382550599108725686, 0.9410544694355857942 ) ) ;
#164 = DIRECTION ( 'NONE',  ( 1.953992523340274880E-14, -1.000000000000000000, 0.000000000000000000 ) ) ;
#165 = CARTESIAN_POINT ( 'NONE',  ( 1.710332578358781341E-30, 3.999999999999994671, 4.898587196589406912E-16 ) ) ;
#166 = AXIS2_PLACEMENT_3D ( 'NONE', #34, #289, #230 ) ;
#167 = CIRCLE ( 'NONE', #123, 3.949999999999997957 ) ;
#168 = DIRECTION ( 'NONE',  ( -3.491481338843133355E-15, 1.224646799147353207E-16, -1.000000000000000000 ) ) ;
#169 = APPLICATION_PROTOCOL_DEFINITION ( 'draft international standard', 'automotive_design', 1998, #211 ) ;
#170 = CARTESIAN_POINT ( 'NONE',  ( 2.171701392760428316E-13, -7.617303090696535366E-15, 62.19999999999998153 ) ) ;
#171 = CIRCLE ( 'NONE', #58, 3.199999999999986855 ) ;
#172 = EDGE_LOOP ( 'NONE', ( #294, #182, #236, #144 ) ) ;
#173 = DIRECTION ( 'NONE',  ( 3.491481338843133355E-15, -1.224646799147353207E-16, 1.000000000000000000 ) ) ;
#174 = UNCERTAINTY_MEASURE_WITH_UNIT (LENGTH_MEASURE( 1.000000000000000082E-05 ), #252, 'distance_accuracy_value', 'NONE');
#175 = EDGE_CURVE ( 'NONE', #31, #334, #171, .T. ) ;
#176 = DIRECTION ( 'NONE',  ( -3.491481338843133355E-15, 1.224646799147353207E-16, -1.000000000000000000 ) ) ;
#177 = MANIFOLD_SOLID_BREP ( 'Corps-Déplacer/Copier1[2]', #49 ) ;
#178 = PRESENTATION_STYLE_ASSIGNMENT (( #305 ) ) ;
#179 = DIRECTION ( 'NONE',  ( 1.000000000000000000, 0.000000000000000000, -3.513364001978345245E-15 ) ) ;
#180 = ORIENTED_EDGE ( 'NONE', *, *, #300, .T. ) ;
#181 = VECTOR ( 'NONE', #163, 1000.000000000000227 ) ;
#182 = ORIENTED_EDGE ( 'NONE', *, *, #298, .T. ) ;
#183 = CARTESIAN_POINT ( 'NONE',  ( 6.721101577273030131E-14, 3.949999999999997957, 19.24999999999999645 ) ) ;
#184 = LINE ( 'NONE', #130, #13 ) ;
#185 = PRESENTATION_LAYER_ASSIGNMENT (  '', '', ( #222 ) ) ;
#186 = ORIENTED_EDGE ( 'NONE', *, *, #39, .T. ) ;
#187 = DIRECTION ( 'NONE',  ( -1.000000000000000000, 0.000000000000000000, 3.491481338843133355E-15 ) ) ;
#188 = EDGE_LOOP ( 'NONE', ( #240, #23, #286, #331 ) ) ;
#189 = ADVANCED_FACE ( 'NONE', ( #89 ), #129, .T. ) ;
#190 = ORIENTED_EDGE ( 'NONE', *, *, #1, .T. ) ;
#191 = AXIS2_PLACEMENT_3D ( 'NONE', #147, #121, #253 ) ;
#192 = PRODUCT_CONTEXT ( 'NONE', #217, 'mechanical' ) ;
#193 =( NAMED_UNIT ( * ) PLANE_ANGLE_UNIT ( ) SI_UNIT ( $, .RADIAN. ) );
#194 = FACE_OUTER_BOUND ( 'NONE', #99, .T. ) ;
#195 = ADVANCED_FACE ( 'NONE', ( #194 ), #248, .T. ) ;
#196 =( NAMED_UNIT ( * ) SI_UNIT ( $, .STERADIAN. ) SOLID_ANGLE_UNIT ( ) );
#197 = ORIENTED_EDGE ( 'NONE', *, *, #42, .T. ) ;
#198 = AXIS2_PLACEMENT_3D ( 'NONE', #75, #176, #28 ) ;
#199 = DIRECTION ( 'NONE',  ( -2.468850131082276782E-15, 0.7071067811865441310, -0.7071067811865507924 ) ) ;
#200 = PRODUCT_DEFINITION_FORMATION_WITH_SPECIFIED_SOURCE ( 'ANY', '', #241, .NOT_KNOWN. ) ;
#201 = EDGE_LOOP ( 'NONE', ( #247, #304, #186, #74 ) ) ;
#202 = SURFACE_STYLE_FILL_AREA ( #139 ) ;
#203 = ORIENTED_EDGE ( 'NONE', *, *, #205, .F. ) ;
#204 = AXIS2_PLACEMENT_3D ( 'NONE', #212, #265, #234 ) ;
#205 = EDGE_CURVE ( 'NONE', #334, #31, #301, .T. ) ;
#206 = ORIENTED_EDGE ( 'NONE', *, *, #287, .T. ) ;
#207 = VERTEX_POINT ( 'NONE', #142 ) ;
#208 = CIRCLE ( 'NONE', #308, 3.950000000000000178 ) ;
#209 = STYLED_ITEM ( 'NONE', ( #178 ), #283 ) ;
#210 = LINE ( 'NONE', #159, #26 ) ;
#211 = APPLICATION_CONTEXT ( 'automotive_design' ) ;
#212 = CARTESIAN_POINT ( 'NONE',  ( 6.721101577273030131E-14, 0.000000000000000000, 19.24999999999999645 ) ) ;
#213 = DIRECTION ( 'NONE',  ( -3.491481338843133355E-15, 1.224646799147353207E-16, -1.000000000000000000 ) ) ;
#214 = AXIS2_PLACEMENT_3D ( 'NONE', #37, #238, #52 ) ;
#215 = EDGE_CURVE ( 'NONE', #334, #250, #115, .T. ) ;
#216 = CARTESIAN_POINT ( 'NONE',  ( 2.199633243471174140E-13, -7.715274834628325378E-15, 63.00000000000000000 ) ) ;
#217 = APPLICATION_CONTEXT ( 'automotive_design' ) ;
#218 = ORIENTED_EDGE ( 'NONE', *, *, #205, .T. ) ;
#219 = ADVANCED_FACE ( 'NONE', ( #303 ), #73, .T. ) ;
#220 = DIRECTION ( 'NONE',  ( 1.000000000000000000, 0.000000000000000000, -3.513364001978345245E-15 ) ) ;
#221 = ORIENTED_EDGE ( 'NONE', *, *, #29, .F. ) ;
#222 = STYLED_ITEM ( 'NONE', ( #245 ), #326 ) ;
#223 = LINE ( 'NONE', #279, #70 ) ;
#224 = CARTESIAN_POINT ( 'NONE',  ( 2.185667318115801102E-13, 3.199999999999978861, 63.00000000000000000 ) ) ;
#225 = PRODUCT_DEFINITION_CONTEXT ( 'detailed design', #211, 'design' ) ;
#226 = FILL_AREA_STYLE ('',( #307 ) ) ;
#227 = DIRECTION ( 'NONE',  ( 3.491481338843133355E-15, -0.000000000000000000, 1.000000000000000000 ) ) ;
#228 = ORIENTED_EDGE ( 'NONE', *, *, #175, .T. ) ;
#229 = CARTESIAN_POINT ( 'NONE',  ( 6.745385575565136235E-14, -3.950000000000002842, 19.24999999999999645 ) ) ;
#230 = DIRECTION ( 'NONE',  ( 1.000000000000000000, 0.000000000000000000, -3.491481338843133355E-15 ) ) ;
#231 = AXIS2_PLACEMENT_3D ( 'NONE', #325, #295, #9 ) ;
#232 = AXIS2_PLACEMENT_3D ( 'NONE', #64, #168, #43 ) ;
#233 = EDGE_CURVE ( 'NONE', #321, #207, #223, .T. ) ;
#234 = DIRECTION ( 'NONE',  ( 1.000000000000000000, 0.000000000000000000, -3.513364001978344456E-15 ) ) ;
#235 = ORIENTED_EDGE ( 'NONE', *, *, #67, .T. ) ;
#236 = ORIENTED_EDGE ( 'NONE', *, *, #131, .F. ) ;
#237 =( GEOMETRIC_REPRESENTATION_CONTEXT ( 3 ) GLOBAL_UNCERTAINTY_ASSIGNED_CONTEXT ( ( #124 ) ) GLOBAL_UNIT_ASSIGNED_CONTEXT ( ( #143, #193, #12 ) ) REPRESENTATION_CONTEXT ( 'NONE', 'WORKASPACE' ) );
#238 = DIRECTION ( 'NONE',  ( -3.491481338843133355E-15, 1.224646799147353207E-16, -1.000000000000000000 ) ) ;
#239 = CARTESIAN_POINT ( 'NONE',  ( 0.000000000000000000, 0.000000000000000000, 0.000000000000000000 ) ) ;
#240 = ORIENTED_EDGE ( 'NONE', *, *, #67, .F. ) ;
#241 = PRODUCT ( '42590', '42590', '', ( #192 ) ) ;
#242 = DIRECTION ( 'NONE',  ( 0.000000000000000000, -1.000000000000000000, 0.000000000000000000 ) ) ;
#243 = VERTEX_POINT ( 'NONE', #310 ) ;
#244 = DIRECTION ( 'NONE',  ( 3.491481338843133355E-15, -1.224646799147353207E-16, 1.000000000000000000 ) ) ;
#245 = PRESENTATION_STYLE_ASSIGNMENT (( #46 ) ) ;
#246 = CARTESIAN_POINT ( 'NONE',  ( 2.199633243471174140E-13, -7.715274834628325378E-15, 63.00000000000000000 ) ) ;
#247 = ORIENTED_EDGE ( 'NONE', *, *, #298, .F. ) ;
#248 = PLANE ( 'NONE',  #232 ) ;
#249 = FILL_AREA_STYLE_COLOUR ( '', #152 ) ;
#250 = VERTEX_POINT ( 'NONE', #30 ) ;
#251 = PRESENTATION_LAYER_ASSIGNMENT (  '', '', ( #209 ) ) ;
#252 =( LENGTH_UNIT ( ) NAMED_UNIT ( * ) SI_UNIT ( .MILLI., .METRE. ) );
#253 = DIRECTION ( 'NONE',  ( 0.000000000000000000, 1.000000000000000000, 0.000000000000000000 ) ) ;
#254 = ADVANCED_FACE ( 'NONE', ( #98 ), #8, .T. ) ;
#255 = DIRECTION ( 'NONE',  ( 3.285674118869273254E-15, -0.3382550599108727907, 0.9410544694355856832 ) ) ;
#256 = AXIS2_PLACEMENT_3D ( 'NONE', #216, #36, #79 ) ;
#257 = AXIS2_PLACEMENT_3D ( 'NONE', #263, #104, #269 ) ;
#258 = VECTOR ( 'NONE', #199, 1000.000000000000114 ) ;
#259 = EDGE_LOOP ( 'NONE', ( #206, #19 ) ) ;
#260 = PRODUCT_DEFINITION_SHAPE ( 'NONE', 'NONE',  #154 ) ;
#261 = DIRECTION ( 'NONE',  ( 3.491481338843133355E-15, -1.224646799147353207E-16, 1.000000000000000000 ) ) ;
#262 = AXIS2_PLACEMENT_3D ( 'NONE', #315, #62, #164 ) ;
#263 = CARTESIAN_POINT ( 'NONE',  ( 6.769669573857242339E-14, -2.374480448363632493E-15, 19.38910427085457044 ) ) ;
#264 = EDGE_CURVE ( 'NONE', #275, #243, #65, .T. ) ;
#265 = DIRECTION ( 'NONE',  ( 3.491481338843133355E-15, -0.000000000000000000, 1.000000000000000000 ) ) ;
#266 = DIRECTION ( 'NONE',  ( 3.491481338843133355E-15, -0.000000000000000000, 1.000000000000000000 ) ) ;
#267 = MECHANICAL_DESIGN_GEOMETRIC_PRESENTATION_REPRESENTATION (  '', ( #209 ), #94 ) ;
#268 = CARTESIAN_POINT ( 'NONE',  ( 0.000000000000000000, 0.000000000000000000, 0.000000000000000000 ) ) ;
#269 = DIRECTION ( 'NONE',  ( 0.000000000000000000, 1.000000000000000000, 0.000000000000000000 ) ) ;
#270 = DIRECTION ( 'NONE',  ( 3.491481338843133355E-15, -0.000000000000000000, 1.000000000000000000 ) ) ;
#271 = EDGE_LOOP ( 'NONE', ( #61, #128, #54, #117 ) ) ;
#272 = CONICAL_SURFACE ( 'NONE', #122, 3.950000000000000178, 0.3450620389298092450 ) ;
#273 = MECHANICAL_DESIGN_GEOMETRIC_PRESENTATION_REPRESENTATION (  '', ( #134 ), #237 ) ;
#274 = DIRECTION ( 'NONE',  ( 0.000000000000000000, -1.000000000000000000, 0.000000000000000000 ) ) ;
#275 = VERTEX_POINT ( 'NONE', #48 ) ;
#276 = PRODUCT_RELATED_PRODUCT_CATEGORY ( 'part', '', ( #241 ) ) ;
#277 = DIRECTION ( 'NONE',  ( 0.000000000000000000, 0.000000000000000000, 1.000000000000000000 ) ) ;
#278 = CARTESIAN_POINT ( 'NONE',  ( 6.721101577273030131E-14, 0.000000000000000000, 19.24999999999999645 ) ) ;
#279 = CARTESIAN_POINT ( 'NONE',  ( 6.721101577273030131E-14, -3.950000000000002842, 19.24999999999999645 ) ) ;
#280 = ORIENTED_EDGE ( 'NONE', *, *, #131, .T. ) ;
#281 = CIRCLE ( 'NONE', #341, 3.949999999999997957 ) ;
#282 = ADVANCED_FACE ( 'NONE', ( #125 ), #24, .T. ) ;
#283 = MANIFOLD_SOLID_BREP ( 'Corps-Déplacer/Copier1[1]', #316 ) ;
#284 = CARTESIAN_POINT ( 'NONE',  ( 2.171701392760428316E-13, -7.617303090696535366E-15, 62.19999999999998153 ) ) ;
#285 = AXIS2_PLACEMENT_3D ( 'NONE', #183, #106, #187 ) ;
#286 = ORIENTED_EDGE ( 'NONE', *, *, #233, .T. ) ;
#287 = EDGE_CURVE ( 'NONE', #10, #5, #281, .T. ) ;
#288 = EDGE_LOOP ( 'NONE', ( #38, #84 ) ) ;
#289 = DIRECTION ( 'NONE',  ( 3.491481338843133355E-15, -0.000000000000000000, 1.000000000000000000 ) ) ;
#290 = CARTESIAN_POINT ( 'NONE',  ( 4.898587196589389163E-16, -3.999999999999994671, -4.898587196589422689E-16 ) ) ;
#291 = CARTESIAN_POINT ( 'NONE',  ( -3.949999999999930900, 4.837354856632043085E-16, 19.25000000000001066 ) ) ;
#292 = CIRCLE ( 'NONE', #100, 3.999999999999994671 ) ;
#293 = EDGE_CURVE ( 'NONE', #337, #250, #292, .T. ) ;
#294 = ORIENTED_EDGE ( 'NONE', *, *, #329, .T. ) ;
#295 = DIRECTION ( 'NONE',  ( -3.491481338843133355E-15, 1.224646799147353207E-16, -1.000000000000000000 ) ) ;
#296 = CARTESIAN_POINT ( 'NONE',  ( 3.950000000000064571, 0.000000000000000000, 19.24999999999998224 ) ) ;
#297 = CIRCLE ( 'NONE', #262, 3.999999999999994671 ) ;
#298 = EDGE_CURVE ( 'NONE', #337, #207, #2, .T. ) ;
#299 = CARTESIAN_POINT ( 'NONE',  ( 2.199633243471174140E-13, -7.715274834628325378E-15, 63.00000000000000000 ) ) ;
#300 = EDGE_CURVE ( 'NONE', #243, #10, #77, .T. ) ;
#301 = CIRCLE ( 'NONE', #107, 3.199999999999986855 ) ;
#302 = FILL_AREA_STYLE ('',( #11 ) ) ;
#303 = FACE_OUTER_BOUND ( 'NONE', #318, .T. ) ;
#304 = ORIENTED_EDGE ( 'NONE', *, *, #293, .T. ) ;
#305 = SURFACE_STYLE_USAGE ( .BOTH. , #342 ) ;
#306 = CYLINDRICAL_SURFACE ( 'NONE', #146, 3.999999999999994671 ) ;
#307 = FILL_AREA_STYLE_COLOUR ( '', #119 ) ;
#308 = AXIS2_PLACEMENT_3D ( 'NONE', #56, #101, #162 ) ;
#309 =( GEOMETRIC_REPRESENTATION_CONTEXT ( 3 ) GLOBAL_UNCERTAINTY_ASSIGNED_CONTEXT ( ( #320 ) ) GLOBAL_UNIT_ASSIGNED_CONTEXT ( ( #93, #312, #151 ) ) REPRESENTATION_CONTEXT ( 'NONE', 'WORKASPACE' ) );
#310 = CARTESIAN_POINT ( 'NONE',  ( 3.950000000000000178, 0.000000000000000000, -1.379135128843037675E-14 ) ) ;
#311 = DIRECTION ( 'NONE',  ( 1.000000000000000000, 0.000000000000000000, -3.491481338843133355E-15 ) ) ;
#312 =( NAMED_UNIT ( * ) PLANE_ANGLE_UNIT ( ) SI_UNIT ( $, .RADIAN. ) );
#313 = CARTESIAN_POINT ( 'NONE',  ( 6.721101577273030131E-14, 0.000000000000000000, 19.24999999999999645 ) ) ;
#314 = ORIENTED_EDGE ( 'NONE', *, *, #264, .T. ) ;
#315 = CARTESIAN_POINT ( 'NONE',  ( 2.171701392760428316E-13, -7.617303090696535366E-15, 62.19999999999998153 ) ) ;
#316 = CLOSED_SHELL ( 'NONE', ( #254, #138, #340, #195, #112, #282, #116, #189 ) ) ;
#317 = AXIS2_PLACEMENT_3D ( 'NONE', #330, #244, #18 ) ;
#318 = EDGE_LOOP ( 'NONE', ( #190, #126, #17, #35 ) ) ;
#319 = FACE_OUTER_BOUND ( 'NONE', #114, .T. ) ;
#320 = UNCERTAINTY_MEASURE_WITH_UNIT (LENGTH_MEASURE( 1.000000000000000082E-05 ), #93, 'distance_accuracy_value', 'NONE');
#321 = VERTEX_POINT ( 'NONE', #229 ) ;
#322 = ADVANCED_FACE ( 'NONE', ( #158 ), #6, .F. ) ;
#323 = CARTESIAN_POINT ( 'NONE',  ( 6.769475125839350641E-14, 3.949999999999997957, 19.24999999999999645 ) ) ;
#324 = CIRCLE ( 'NONE', #80, 3.950000000000000178 ) ;
#325 = CARTESIAN_POINT ( 'NONE',  ( 6.721101577273030131E-14, -2.357445088358654363E-15, 19.24999999999999645 ) ) ;
#326 = ADVANCED_BREP_SHAPE_REPRESENTATION ( '42590', ( #283, #177, #71 ), #309 ) ;
#327 = SHAPE_DEFINITION_REPRESENTATION ( #260, #326 ) ;
#328 = CARTESIAN_POINT ( 'NONE',  ( 6.769669573857242339E-14, 3.999999999999989786, 19.38910427085457044 ) ) ;
#329 = EDGE_CURVE ( 'NONE', #250, #337, #297, .T. ) ;
#330 = CARTESIAN_POINT ( 'NONE',  ( 6.721101577273030131E-14, -2.357445088358654363E-15, 19.24999999999999645 ) ) ;
#331 = ORIENTED_EDGE ( 'NONE', *, *, #333, .T. ) ;
#332 = SURFACE_SIDE_STYLE ('',( #202 ) ) ;
#333 = EDGE_CURVE ( 'NONE', #207, #105, #27, .T. ) ;
#334 = VERTEX_POINT ( 'NONE', #224 ) ;
#335 = DIRECTION ( 'NONE',  ( 1.000000000000000000, 0.000000000000000000, 0.000000000000000000 ) ) ;
#336 = CIRCLE ( 'NONE', #231, 3.950000000000000178 ) ;
#337 = VERTEX_POINT ( 'NONE', #51 ) ;
#338 = VECTOR ( 'NONE', #60, 1000.000000000000000 ) ;
#339 = VERTEX_POINT ( 'NONE', #97 ) ;
#340 = ADVANCED_FACE ( 'NONE', ( #155 ), #306, .T. ) ;
#341 = AXIS2_PLACEMENT_3D ( 'NONE', #313, #227, #179 ) ;
#342 = SURFACE_SIDE_STYLE ('',( #96 ) ) ;
#343 = EDGE_LOOP ( 'NONE', ( #4, #203, #83, #120 ) ) ;
ENDSEC;
END-ISO-10303-21;
