ISO-10303-21;
HEADER;
FILE_DESCRIPTION (( 'STEP AP214' ),
    '1' );
FILE_NAME ('42589.step',
    '2024-04-04T09:33:01',
    ( '' ),
    ( '' ),
    'SwSTEP 2.0',
    'SolidWorks 2022',
    '' );
FILE_SCHEMA (( 'AUTOMOTIVE_DESIGN' ));
ENDSEC;

DATA;
#1 =( LENGTH_UNIT ( ) NAMED_UNIT ( * ) SI_UNIT ( .MILLI., .METRE. ) );
#2 = DIRECTION ( 'NONE',  ( 0.000000000000000000, 1.000000000000000000, 0.000000000000000000 ) ) ;
#3 = EDGE_CURVE ( 'NONE', #9, #77, #222, .T. ) ;
#4 = CYLINDRICAL_SURFACE ( 'NONE', #80, 5.949999999999998401 ) ;
#5 = DIRECTION ( 'NONE',  ( -3.491481338843133355E-15, 1.224646799147347537E-16, -1.000000000000000000 ) ) ;
#6 = EDGE_CURVE ( 'NONE', #183, #101, #326, .T. ) ;
#7 = FILL_AREA_STYLE_COLOUR ( '', #181 ) ;
#8 = DIRECTION ( 'NONE',  ( 3.491481338843133355E-15, -0.000000000000000000, 1.000000000000000000 ) ) ;
#9 = VERTEX_POINT ( 'NONE', #116 ) ;
#10 = AXIS2_PLACEMENT_3D ( 'NONE', #152, #257, #17 ) ;
#11 = DIRECTION ( 'NONE',  ( 0.000000000000000000, 0.000000000000000000, 1.000000000000000000 ) ) ;
#12 = LINE ( 'NONE', #204, #288 ) ;
#13 = EDGE_CURVE ( 'NONE', #112, #242, #258, .T. ) ;
#14 = AXIS2_PLACEMENT_3D ( 'NONE', #194, #8, #225 ) ;
#15 = AXIS2_PLACEMENT_3D ( 'NONE', #75, #56, #96 ) ;
#16 = FACE_OUTER_BOUND ( 'NONE', #23, .T. ) ;
#17 = DIRECTION ( 'NONE',  ( 0.000000000000000000, 1.000000000000000000, 0.000000000000000000 ) ) ;
#18 = CARTESIAN_POINT ( 'NONE',  ( 5.950000000000103206, 0.000000000000000000, 29.99999999999997868 ) ) ;
#19 = FACE_OUTER_BOUND ( 'NONE', #197, .T. ) ;
#20 = MECHANICAL_DESIGN_GEOMETRIC_PRESENTATION_REPRESENTATION (  '', ( #76 ), #330 ) ;
#21 = ORIENTED_EDGE ( 'NONE', *, *, #13, .T. ) ;
#22 = CARTESIAN_POINT ( 'NONE',  ( 1.047444401652940007E-13, 0.000000000000000000, 30.00000000000000000 ) ) ;
#23 = EDGE_LOOP ( 'NONE', ( #160, #144, #343, #161 ) ) ;
#24 = DIRECTION ( 'NONE',  ( 3.491481338843133355E-15, -0.000000000000000000, 1.000000000000000000 ) ) ;
#25 =( GEOMETRIC_REPRESENTATION_CONTEXT ( 3 ) GLOBAL_UNCERTAINTY_ASSIGNED_CONTEXT ( ( #45 ) ) GLOBAL_UNIT_ASSIGNED_CONTEXT ( ( #39, #276, #278 ) ) REPRESENTATION_CONTEXT ( 'NONE', 'WORKASPACE' ) );
#26 = ORIENTED_EDGE ( 'NONE', *, *, #131, .F. ) ;
#27 = CARTESIAN_POINT ( 'NONE',  ( 1.047444401652940007E-13, -3.673940397442059178E-15, 30.00000000000000000 ) ) ;
#28 =( NAMED_UNIT ( * ) SI_UNIT ( $, .STERADIAN. ) SOLID_ANGLE_UNIT ( ) );
#29 = EDGE_CURVE ( 'NONE', #242, #112, #102, .T. ) ;
#30 = DIRECTION ( 'NONE',  ( 0.000000000000000000, 1.000000000000000000, 0.000000000000000000 ) ) ;
#31 = LINE ( 'NONE', #178, #52 ) ;
#32 = EDGE_CURVE ( 'NONE', #316, #77, #342, .T. ) ;
#33 = AXIS2_PLACEMENT_3D ( 'NONE', #207, #213, #237 ) ;
#34 = EDGE_LOOP ( 'NONE', ( #84, #269, #169, #55 ) ) ;
#35 = DIRECTION ( 'NONE',  ( 0.000000000000000000, 1.000000000000000000, 0.000000000000000000 ) ) ;
#36 = CARTESIAN_POINT ( 'NONE',  ( 1.047444401652940007E-13, -3.673940397442059178E-15, 30.00000000000000000 ) ) ;
#37 = AXIS2_PLACEMENT_3D ( 'NONE', #223, #219, #115 ) ;
#38 = AXIS2_PLACEMENT_3D ( 'NONE', #268, #298, #174 ) ;
#39 =( LENGTH_UNIT ( ) NAMED_UNIT ( * ) SI_UNIT ( .MILLI., .METRE. ) );
#40 = CARTESIAN_POINT ( 'NONE',  ( 5.950000000000102318, 0.000000000000000000, 29.99999999999997868 ) ) ;
#41 = EDGE_CURVE ( 'NONE', #101, #183, #172, .T. ) ;
#42 = CARTESIAN_POINT ( 'NONE',  ( 2.856031735173683463E-13, 5.999999999999989342, 81.80000000000001137 ) ) ;
#43 = FACE_OUTER_BOUND ( 'NONE', #63, .T. ) ;
#44 = ORIENTED_EDGE ( 'NONE', *, *, #200, .T. ) ;
#45 = UNCERTAINTY_MEASURE_WITH_UNIT (LENGTH_MEASURE( 1.000000000000000082E-05 ), #39, 'distance_accuracy_value', 'NONE');
#46 = FACE_OUTER_BOUND ( 'NONE', #86, .T. ) ;
#47 = AXIS2_PLACEMENT_3D ( 'NONE', #290, #49, #159 ) ;
#48 = EDGE_LOOP ( 'NONE', ( #273, #184, #238, #83 ) ) ;
#49 = DIRECTION ( 'NONE',  ( -3.491481338843133355E-15, 1.224646799147347537E-16, -1.000000000000000000 ) ) ;
#50 = EDGE_LOOP ( 'NONE', ( #21, #214 ) ) ;
#51 = FILL_AREA_STYLE ('',( #7 ) ) ;
#52 = VECTOR ( 'NONE', #24, 1000.000000000000000 ) ;
#53 = STYLED_ITEM ( 'NONE', ( #228 ), #93 ) ;
#54 = SURFACE_STYLE_USAGE ( .BOTH. , #136 ) ;
#55 = ORIENTED_EDGE ( 'NONE', *, *, #226, .F. ) ;
#56 = DIRECTION ( 'NONE',  ( -3.491481338843133355E-15, 1.224646799147347537E-16, -1.000000000000000000 ) ) ;
#57 =( NAMED_UNIT ( * ) PLANE_ANGLE_UNIT ( ) SI_UNIT ( $, .RADIAN. ) );
#58 = ADVANCED_FACE ( 'NONE', ( #320 ), #65, .T. ) ;
#59 = SURFACE_SIDE_STYLE ('',( #299 ) ) ;
#60 = ORIENTED_EDGE ( 'NONE', *, *, #128, .F. ) ;
#61 = CLOSED_SHELL ( 'NONE', ( #58, #220, #113, #291, #266, #189, #158, #260 ) ) ;
#62 = PRODUCT_DEFINITION_SHAPE ( 'NONE', 'NONE',  #311 ) ;
#63 = EDGE_LOOP ( 'NONE', ( #340, #167, #133, #97 ) ) ;
#64 = DIRECTION ( 'NONE',  ( 1.000000000000000000, 0.000000000000000000, -3.491481338843133355E-15 ) ) ;
#65 = CONICAL_SURFACE ( 'NONE', #156, 6.000000000000000000, 0.7853981633974465026 ) ;
#66 = CARTESIAN_POINT ( 'NONE',  ( 1.057190066107056111E-13, 5.949999999999996625, 30.00000000000000000 ) ) ;
#67 = EDGE_CURVE ( 'NONE', #240, #99, #277, .T. ) ;
#68 = DIRECTION ( 'NONE',  ( 4.275831445896959482E-31, 1.000000000000000000, 1.224646799147353207E-16 ) ) ;
#69 = VECTOR ( 'NONE', #306, 1000.000000000000000 ) ;
#70 = DIRECTION ( 'NONE',  ( 1.000000000000000000, 0.000000000000000000, -3.498601968356586718E-15 ) ) ;
#71 = CARTESIAN_POINT ( 'NONE',  ( 2.876980623206742390E-13, 4.800000000000001599, 83.00000000000000000 ) ) ;
#72 = ORIENTED_EDGE ( 'NONE', *, *, #6, .T. ) ;
#73 = FACE_OUTER_BOUND ( 'NONE', #48, .T. ) ;
#74 = AXIS2_PLACEMENT_3D ( 'NONE', #103, #313, #153 ) ;
#75 = CARTESIAN_POINT ( 'NONE',  ( 2.856031735173683463E-13, -1.001761081702535121E-14, 81.80000000000001137 ) ) ;
#76 = STYLED_ITEM ( 'NONE', ( #164 ), #106 ) ;
#77 = VERTEX_POINT ( 'NONE', #249 ) ;
#78 = ORIENTED_EDGE ( 'NONE', *, *, #142, .F. ) ;
#79 = MECHANICAL_DESIGN_GEOMETRIC_PRESENTATION_REPRESENTATION (  '', ( #53 ), #25 ) ;
#80 = AXIS2_PLACEMENT_3D ( 'NONE', #111, #307, #70 ) ;
#81 = DIRECTION ( 'NONE',  ( 3.491481338843133355E-15, -0.000000000000000000, 1.000000000000000000 ) ) ;
#82 = CARTESIAN_POINT ( 'NONE',  ( 1.047444401652940007E-13, 5.949999999999996625, 30.00000000000000000 ) ) ;
#83 = ORIENTED_EDGE ( 'NONE', *, *, #29, .F. ) ;
#84 = ORIENTED_EDGE ( 'NONE', *, *, #67, .T. ) ;
#85 = COLOUR_RGB ( '',0.8980392156862745390, 0.9176470588235293713, 0.9294117647058823817 ) ;
#86 = EDGE_LOOP ( 'NONE', ( #110, #134, #325, #26 ) ) ;
#87 = DIRECTION ( 'NONE',  ( 3.285674118869250772E-15, -0.3382550599108913314, 0.9410544694355792439 ) ) ;
#88 =( NAMED_UNIT ( * ) SI_UNIT ( $, .STERADIAN. ) SOLID_ANGLE_UNIT ( ) );
#89 = VECTOR ( 'NONE', #87, 999.9999999999998863 ) ;
#90 = MANIFOLD_SOLID_BREP ( 'Corps-Déplacer/Copier1[1]', #61 ) ;
#91 = ADVANCED_FACE ( 'NONE', ( #282 ), #137, .F. ) ;
#92 =( NAMED_UNIT ( * ) PLANE_ANGLE_UNIT ( ) SI_UNIT ( $, .RADIAN. ) );
#93 = MANIFOLD_SOLID_BREP ( 'Corps-Déplacer/Copier1[2]', #267 ) ;
#94 =( LENGTH_UNIT ( ) NAMED_UNIT ( * ) SI_UNIT ( .MILLI., .METRE. ) );
#95 = AXIS2_PLACEMENT_3D ( 'NONE', #36, #146, #331 ) ;
#96 = DIRECTION ( 'NONE',  ( -1.509903313490213211E-14, -1.000000000000000000, 0.000000000000000000 ) ) ;
#97 = ORIENTED_EDGE ( 'NONE', *, *, #32, .F. ) ;
#98 = DIRECTION ( 'NONE',  ( 3.491481338843133355E-15, -0.000000000000000000, 1.000000000000000000 ) ) ;
#99 = VERTEX_POINT ( 'NONE', #279 ) ;
#100 = CARTESIAN_POINT ( 'NONE',  ( 2.863379615968567067E-13, -6.000000000000010658, 81.80000000000001137 ) ) ;
#101 = VERTEX_POINT ( 'NONE', #66 ) ;
#102 = CIRCLE ( 'NONE', #321, 5.949999999999996625 ) ;
#103 = CARTESIAN_POINT ( 'NONE',  ( 0.000000000000000000, 0.000000000000000000, 0.000000000000000000 ) ) ;
#104 = EDGE_CURVE ( 'NONE', #243, #316, #202, .T. ) ;
#105 = ORIENTED_EDGE ( 'NONE', *, *, #32, .T. ) ;
#106 = ADVANCED_BREP_SHAPE_REPRESENTATION ( '42589', ( #90, #93, #230 ), #212 ) ;
#107 = CARTESIAN_POINT ( 'NONE',  ( 2.565498867538175514E-30, 6.000000000000000000, 7.347880794884119736E-16 ) ) ;
#108 = APPLICATION_CONTEXT ( 'automotive_design' ) ;
#109 = DIRECTION ( 'NONE',  ( 1.000000000000000000, 0.000000000000000000, 0.000000000000000000 ) ) ;
#110 = ORIENTED_EDGE ( 'NONE', *, *, #41, .F. ) ;
#111 = CARTESIAN_POINT ( 'NONE',  ( 1.047444401652940007E-13, 0.000000000000000000, 30.00000000000000000 ) ) ;
#112 = VERTEX_POINT ( 'NONE', #40 ) ;
#113 = ADVANCED_FACE ( 'NONE', ( #16 ), #281, .T. ) ;
#114 = APPLICATION_PROTOCOL_DEFINITION ( 'draft international standard', 'automotive_design', 1998, #108 ) ;
#115 = DIRECTION ( 'NONE',  ( 0.000000000000000000, 1.000000000000000000, 0.000000000000000000 ) ) ;
#116 = CARTESIAN_POINT ( 'NONE',  ( 1.954166468242522345E-13, 5.999999999999989342, 81.80000000000001137 ) ) ;
#117 = CIRCLE ( 'NONE', #10, 5.999999999999996447 ) ;
#118 = EDGE_CURVE ( 'NONE', #77, #316, #117, .T. ) ;
#119 = DIRECTION ( 'NONE',  ( 3.327098416510777354E-15, 0.3382550599108911094, 0.9410544694355791329 ) ) ;
#120 = CIRCLE ( 'NONE', #294, 4.800000000000011369 ) ;
#121 = CIRCLE ( 'NONE', #33, 4.800000000000011369 ) ;
#122 = DIRECTION ( 'NONE',  ( 1.000000000000000000, 0.000000000000000000, -3.491481338843133355E-15 ) ) ;
#123 = LINE ( 'NONE', #198, #89 ) ;
#124 = CYLINDRICAL_SURFACE ( 'NONE', #187, 5.949999999999998401 ) ;
#125 = EDGE_LOOP ( 'NONE', ( #155, #336, #171, #235 ) ) ;
#126 = VECTOR ( 'NONE', #285, 1000.000000000000000 ) ;
#127 = CARTESIAN_POINT ( 'NONE',  ( -5.949999999999891820, 7.286648454926749007E-16, 30.00000000000002132 ) ) ;
#128 = EDGE_CURVE ( 'NONE', #99, #240, #147, .T. ) ;
#129 = UNCERTAINTY_MEASURE_WITH_UNIT (LENGTH_MEASURE( 1.000000000000000082E-05 ), #1, 'distance_accuracy_value', 'NONE');
#130 = CARTESIAN_POINT ( 'NONE',  ( 1.047444401652940007E-13, -3.673940397442059178E-15, 30.00000000000000000 ) ) ;
#131 = EDGE_CURVE ( 'NONE', #183, #316, #123, .T. ) ;
#132 = CARTESIAN_POINT ( 'NONE',  ( 2.897929511239800811E-13, -1.016456843292303150E-14, 83.00000000000000000 ) ) ;
#133 = ORIENTED_EDGE ( 'NONE', *, *, #3, .T. ) ;
#134 = ORIENTED_EDGE ( 'NONE', *, *, #142, .T. ) ;
#135 = CARTESIAN_POINT ( 'NONE',  ( 1.047444401652940007E-13, 0.000000000000000000, 30.00000000000000000 ) ) ;
#136 = SURFACE_SIDE_STYLE ('',( #191 ) ) ;
#137 = PLANE ( 'NONE',  #217 ) ;
#138 = CARTESIAN_POINT ( 'NONE',  ( 2.883593715922138239E-13, -4.800000000000022027, 83.00000000000000000 ) ) ;
#139 = PRODUCT_DEFINITION_FORMATION_WITH_SPECIFIED_SOURCE ( 'ANY', '', #327, .NOT_KNOWN. ) ;
#140 = CARTESIAN_POINT ( 'NONE',  ( 2.856031735173683463E-13, -1.001761081702535121E-14, 81.80000000000001137 ) ) ;
#141 = PRODUCT_RELATED_PRODUCT_CATEGORY ( 'part', '', ( #327 ) ) ;
#142 = EDGE_CURVE ( 'NONE', #101, #77, #12, .T. ) ;
#143 = APPLICATION_PROTOCOL_DEFINITION ( 'draft international standard', 'automotive_design', 1998, #274 ) ;
#144 = ORIENTED_EDGE ( 'NONE', *, *, #104, .T. ) ;
#145 = CARTESIAN_POINT ( 'NONE',  ( 0.000000000000000000, 0.000000000000000000, 0.000000000000000000 ) ) ;
#146 = DIRECTION ( 'NONE',  ( 3.491481338843133355E-15, -1.224646799147353207E-16, 1.000000000000000000 ) ) ;
#147 = CIRCLE ( 'NONE', #308, 5.950000000000000178 ) ;
#148 = CIRCLE ( 'NONE', #15, 6.000000000000000000 ) ;
#149 =( NAMED_UNIT ( * ) PLANE_ANGLE_UNIT ( ) SI_UNIT ( $, .RADIAN. ) );
#150 = CARTESIAN_POINT ( 'NONE',  ( 6.413747168845438786E-31, 5.950000000000000178, 1.836970198721029934E-16 ) ) ;
#151 = SURFACE_SIDE_STYLE ('',( #302 ) ) ;
#152 = CARTESIAN_POINT ( 'NONE',  ( 1.052301201311361354E-13, -3.690975757447037703E-15, 30.13910427085457400 ) ) ;
#153 = DIRECTION ( 'NONE',  ( 4.275831445896959482E-31, 1.000000000000000000, 1.224646799147353207E-16 ) ) ;
#154 = DIRECTION ( 'NONE',  ( 1.000000000000000000, 0.000000000000000000, -3.498601968356586718E-15 ) ) ;
#155 = ORIENTED_EDGE ( 'NONE', *, *, #256, .F. ) ;
#156 = AXIS2_PLACEMENT_3D ( 'NONE', #140, #5, #30 ) ;
#157 = FACE_OUTER_BOUND ( 'NONE', #125, .T. ) ;
#158 = ADVANCED_FACE ( 'NONE', ( #229 ), #253, .T. ) ;
#159 = DIRECTION ( 'NONE',  ( 1.598721155460225103E-14, -1.000000000000000000, 0.000000000000000000 ) ) ;
#160 = ORIENTED_EDGE ( 'NONE', *, *, #315, .T. ) ;
#161 = ORIENTED_EDGE ( 'NONE', *, *, #3, .F. ) ;
#162 = AXIS2_PLACEMENT_3D ( 'NONE', #27, #196, #2 ) ;
#163 = EDGE_LOOP ( 'NONE', ( #188, #60 ) ) ;
#164 = PRESENTATION_STYLE_ASSIGNMENT (( #54 ) ) ;
#165 = CYLINDRICAL_SURFACE ( 'NONE', #74, 6.000000000000000000 ) ;
#166 = CARTESIAN_POINT ( 'NONE',  ( 0.000000000000000000, 0.000000000000000000, 0.000000000000000000 ) ) ;
#167 = ORIENTED_EDGE ( 'NONE', *, *, #280, .T. ) ;
#168 = STYLED_ITEM ( 'NONE', ( #332 ), #90 ) ;
#169 = ORIENTED_EDGE ( 'NONE', *, *, #13, .F. ) ;
#170 = EDGE_CURVE ( 'NONE', #99, #242, #31, .T. ) ;
#171 = ORIENTED_EDGE ( 'NONE', *, *, #203, .T. ) ;
#172 = CIRCLE ( 'NONE', #333, 5.950000000000000178 ) ;
#173 = AXIS2_PLACEMENT_3D ( 'NONE', #314, #265, #284 ) ;
#174 = DIRECTION ( 'NONE',  ( -1.000000000000000000, 0.000000000000000000, 3.491481338843133355E-15 ) ) ;
#175 = DIRECTION ( 'NONE',  ( -3.491481338843133355E-15, 1.224646799147353207E-16, -1.000000000000000000 ) ) ;
#176 = DIRECTION ( 'NONE',  ( 3.491481338843133355E-15, -0.000000000000000000, 1.000000000000000000 ) ) ;
#177 = LINE ( 'NONE', #100, #126 ) ;
#178 = CARTESIAN_POINT ( 'NONE',  ( -5.949999999999893596, 7.286648454926749993E-16, 30.00000000000002132 ) ) ;
#179 = EDGE_LOOP ( 'NONE', ( #72, #322 ) ) ;
#180 = CARTESIAN_POINT ( 'NONE',  ( 1.049872801482150617E-13, -5.950000000000003730, 30.00000000000000000 ) ) ;
#181 = COLOUR_RGB ( '',0.8980392156862745390, 0.9176470588235293713, 0.9294117647058823817 ) ;
#182 = PLANE ( 'NONE',  #262 ) ;
#183 = VERTEX_POINT ( 'NONE', #180 ) ;
#184 = ORIENTED_EDGE ( 'NONE', *, *, #128, .T. ) ;
#185 =( LENGTH_UNIT ( ) NAMED_UNIT ( * ) SI_UNIT ( .MILLI., .METRE. ) );
#186 = ORIENTED_EDGE ( 'NONE', *, *, #193, .T. ) ;
#187 = AXIS2_PLACEMENT_3D ( 'NONE', #22, #98, #154 ) ;
#188 = ORIENTED_EDGE ( 'NONE', *, *, #67, .F. ) ;
#189 = ADVANCED_FACE ( 'NONE', ( #43 ), #165, .T. ) ;
#190 = DIRECTION ( 'NONE',  ( 4.275831445896958607E-31, 1.000000000000000000, 1.224646799147353207E-16 ) ) ;
#191 = SURFACE_STYLE_FILL_AREA ( #51 ) ;
#192 = FILL_AREA_STYLE ('',( #245 ) ) ;
#193 = EDGE_CURVE ( 'NONE', #244, #293, #120, .T. ) ;
#194 = CARTESIAN_POINT ( 'NONE',  ( 1.047444401652940007E-13, 0.000000000000000000, 30.00000000000000000 ) ) ;
#195 = AXIS2_PLACEMENT_3D ( 'NONE', #145, #81, #296 ) ;
#196 = DIRECTION ( 'NONE',  ( -3.491481338843133355E-15, 1.224646799147353207E-16, -1.000000000000000000 ) ) ;
#197 = EDGE_LOOP ( 'NONE', ( #186, #44 ) ) ;
#198 = CARTESIAN_POINT ( 'NONE',  ( 1.047444401652940007E-13, -5.950000000000003730, 30.00000000000000000 ) ) ;
#199 = MECHANICAL_DESIGN_GEOMETRIC_PRESENTATION_REPRESENTATION (  '', ( #168 ), #211 ) ;
#200 = EDGE_CURVE ( 'NONE', #293, #244, #121, .T. ) ;
#201 = FILL_AREA_STYLE_COLOUR ( '', #252 ) ;
#202 = LINE ( 'NONE', #329, #69 ) ;
#203 = EDGE_CURVE ( 'NONE', #244, #9, #208, .T. ) ;
#204 = CARTESIAN_POINT ( 'NONE',  ( 1.054731050107866761E-13, 5.949999999999996625, 30.00000000000000000 ) ) ;
#205 = PRESENTATION_LAYER_ASSIGNMENT (  '', '', ( #168 ) ) ;
#206 = PRODUCT_DEFINITION_CONTEXT ( 'detailed design', #274, 'design' ) ;
#207 = CARTESIAN_POINT ( 'NONE',  ( 2.897929511239800811E-13, -1.016456843292303150E-14, 83.00000000000000000 ) ) ;
#208 = LINE ( 'NONE', #42, #289 ) ;
#209 = ORIENTED_EDGE ( 'NONE', *, *, #203, .F. ) ;
#210 = DIRECTION ( 'NONE',  ( 3.491481338843133355E-15, -0.000000000000000000, 1.000000000000000000 ) ) ;
#211 =( GEOMETRIC_REPRESENTATION_CONTEXT ( 3 ) GLOBAL_UNCERTAINTY_ASSIGNED_CONTEXT ( ( #312 ) ) GLOBAL_UNIT_ASSIGNED_CONTEXT ( ( #94, #92, #232 ) ) REPRESENTATION_CONTEXT ( 'NONE', 'WORKASPACE' ) );
#212 =( GEOMETRIC_REPRESENTATION_CONTEXT ( 3 ) GLOBAL_UNCERTAINTY_ASSIGNED_CONTEXT ( ( #263 ) ) GLOBAL_UNIT_ASSIGNED_CONTEXT ( ( #185, #149, #28 ) ) REPRESENTATION_CONTEXT ( 'NONE', 'WORKASPACE' ) );
#213 = DIRECTION ( 'NONE',  ( 3.491481338843133355E-15, -1.224646799147353207E-16, 1.000000000000000000 ) ) ;
#214 = ORIENTED_EDGE ( 'NONE', *, *, #29, .T. ) ;
#215 = ORIENTED_EDGE ( 'NONE', *, *, #315, .F. ) ;
#216 = DIRECTION ( 'NONE',  ( 1.000000000000000000, 0.000000000000000000, -3.498601968356587901E-15 ) ) ;
#217 = AXIS2_PLACEMENT_3D ( 'NONE', #150, #176, #122 ) ;
#218 = SHAPE_DEFINITION_REPRESENTATION ( #62, #106 ) ;
#219 = DIRECTION ( 'NONE',  ( -3.491481338843133355E-15, 1.224646799147353207E-16, -1.000000000000000000 ) ) ;
#220 = ADVANCED_FACE ( 'NONE', ( #46 ), #248, .T. ) ;
#221 = PRODUCT_CONTEXT ( 'NONE', #108, 'mechanical' ) ;
#222 = LINE ( 'NONE', #107, #224 ) ;
#223 = CARTESIAN_POINT ( 'NONE',  ( 1.052301201311361354E-13, -3.690975757447037703E-15, 30.13910427085457400 ) ) ;
#224 = VECTOR ( 'NONE', #251, 1000.000000000000000 ) ;
#225 = DIRECTION ( 'NONE',  ( 1.000000000000000000, 0.000000000000000000, -3.498601968356587901E-15 ) ) ;
#226 = EDGE_CURVE ( 'NONE', #240, #112, #264, .T. ) ;
#227 = SURFACE_STYLE_USAGE ( .BOTH. , #59 ) ;
#228 = PRESENTATION_STYLE_ASSIGNMENT (( #254 ) ) ;
#229 = FACE_OUTER_BOUND ( 'NONE', #292, .T. ) ;
#230 = AXIS2_PLACEMENT_3D ( 'NONE', #166, #11, #109 ) ;
#231 = ADVANCED_FACE ( 'NONE', ( #73 ), #124, .T. ) ;
#232 =( NAMED_UNIT ( * ) SI_UNIT ( $, .STERADIAN. ) SOLID_ANGLE_UNIT ( ) );
#233 = FILL_AREA_STYLE ('',( #201 ) ) ;
#234 = DIRECTION ( 'NONE',  ( -3.491481338843133355E-15, 1.224646799147353207E-16, -1.000000000000000000 ) ) ;
#235 = ORIENTED_EDGE ( 'NONE', *, *, #280, .F. ) ;
#236 = PRESENTATION_LAYER_ASSIGNMENT (  '', '', ( #76 ) ) ;
#237 = DIRECTION ( 'NONE',  ( 0.000000000000000000, -1.000000000000000000, 0.000000000000000000 ) ) ;
#238 = ORIENTED_EDGE ( 'NONE', *, *, #226, .T. ) ;
#239 = CARTESIAN_POINT ( 'NONE',  ( 2.856031735173683463E-13, -1.001761081702535121E-14, 81.80000000000001137 ) ) ;
#240 = VERTEX_POINT ( 'NONE', #337 ) ;
#241 = DIRECTION ( 'NONE',  ( -2.468850131082269682E-15, 0.7071067811865463515, -0.7071067811865487940 ) ) ;
#242 = VERTEX_POINT ( 'NONE', #127 ) ;
#243 = VERTEX_POINT ( 'NONE', #261 ) ;
#244 = VERTEX_POINT ( 'NONE', #71 ) ;
#245 = FILL_AREA_STYLE_COLOUR ( '', #85 ) ;
#246 = FACE_OUTER_BOUND ( 'NONE', #34, .T. ) ;
#247 = AXIS2_PLACEMENT_3D ( 'NONE', #305, #175, #68 ) ;
#248 = CONICAL_SURFACE ( 'NONE', #304, 5.950000000000000178, 0.3450620389298288959 ) ;
#249 = CARTESIAN_POINT ( 'NONE',  ( 1.052301201311361354E-13, 5.999999999999992895, 30.13910427085457400 ) ) ;
#250 = PLANE ( 'NONE',  #38 ) ;
#251 = DIRECTION ( 'NONE',  ( -3.491481338843133355E-15, 1.224646799147353207E-16, -1.000000000000000000 ) ) ;
#252 = COLOUR_RGB ( '',0.8980392156862745390, 0.9176470588235293713, 0.9294117647058823817 ) ;
#253 = CONICAL_SURFACE ( 'NONE', #95, 5.950000000000000178, 0.3450620389298288959 ) ;
#254 = SURFACE_STYLE_USAGE ( .BOTH. , #151 ) ;
#255 = DIRECTION ( 'NONE',  ( 3.491481338843133355E-15, -0.000000000000000000, 1.000000000000000000 ) ) ;
#256 = EDGE_CURVE ( 'NONE', #293, #243, #177, .T. ) ;
#257 = DIRECTION ( 'NONE',  ( -3.491481338843133355E-15, 1.224646799147353207E-16, -1.000000000000000000 ) ) ;
#258 = CIRCLE ( 'NONE', #14, 5.949999999999996625 ) ;
#259 = DIRECTION ( 'NONE',  ( 3.491481338843133355E-15, -1.224646799147353207E-16, 1.000000000000000000 ) ) ;
#260 = ADVANCED_FACE ( 'NONE', ( #157 ), #335, .T. ) ;
#261 = CARTESIAN_POINT ( 'NONE',  ( 1.961514349037405697E-13, -6.000000000000011546, 81.80000000000001137 ) ) ;
#262 = AXIS2_PLACEMENT_3D ( 'NONE', #82, #234, #190 ) ;
#263 = UNCERTAINTY_MEASURE_WITH_UNIT (LENGTH_MEASURE( 1.000000000000000082E-05 ), #185, 'distance_accuracy_value', 'NONE');
#264 = LINE ( 'NONE', #18, #272 ) ;
#265 = DIRECTION ( 'NONE',  ( 3.491481338843133355E-15, -1.224646799147353207E-16, 1.000000000000000000 ) ) ;
#266 = ADVANCED_FACE ( 'NONE', ( #19 ), #339, .T. ) ;
#267 = CLOSED_SHELL ( 'NONE', ( #324, #231, #338, #91 ) ) ;
#268 = CARTESIAN_POINT ( 'NONE',  ( 1.047444401652940007E-13, 5.949999999999996625, 30.00000000000000000 ) ) ;
#269 = ORIENTED_EDGE ( 'NONE', *, *, #170, .T. ) ;
#270 = DIRECTION ( 'NONE',  ( 3.491481338843133355E-15, -1.224646799147353207E-16, 1.000000000000000000 ) ) ;
#271 = ORIENTED_EDGE ( 'NONE', *, *, #256, .T. ) ;
#272 = VECTOR ( 'NONE', #210, 1000.000000000000000 ) ;
#273 = ORIENTED_EDGE ( 'NONE', *, *, #170, .F. ) ;
#274 = APPLICATION_CONTEXT ( 'automotive_design' ) ;
#275 = DIRECTION ( 'NONE',  ( -3.491481338843133355E-15, 1.224646799147353207E-16, -1.000000000000000000 ) ) ;
#276 =( NAMED_UNIT ( * ) PLANE_ANGLE_UNIT ( ) SI_UNIT ( $, .RADIAN. ) );
#277 = CIRCLE ( 'NONE', #195, 5.950000000000000178 ) ;
#278 =( NAMED_UNIT ( * ) SI_UNIT ( $, .STERADIAN. ) SOLID_ANGLE_UNIT ( ) );
#279 = CARTESIAN_POINT ( 'NONE',  ( -5.950000000000000178, 7.286648454926816060E-16, 2.077431396611664346E-14 ) ) ;
#280 = EDGE_CURVE ( 'NONE', #243, #9, #148, .T. ) ;
#281 = CYLINDRICAL_SURFACE ( 'NONE', #247, 6.000000000000000000 ) ;
#282 = FACE_OUTER_BOUND ( 'NONE', #163, .T. ) ;
#283 = PRESENTATION_LAYER_ASSIGNMENT (  '', '', ( #53 ) ) ;
#284 = DIRECTION ( 'NONE',  ( -4.275831445896958607E-31, -1.000000000000000000, -1.224646799147353207E-16 ) ) ;
#285 = DIRECTION ( 'NONE',  ( -2.382254525458721019E-15, -0.7071067811865462405, -0.7071067811865489050 ) ) ;
#286 = ORIENTED_EDGE ( 'NONE', *, *, #131, .T. ) ;
#287 = DIRECTION ( 'NONE',  ( 0.000000000000000000, -1.000000000000000000, 0.000000000000000000 ) ) ;
#288 = VECTOR ( 'NONE', #119, 1000.000000000000227 ) ;
#289 = VECTOR ( 'NONE', #241, 999.9999999999998863 ) ;
#290 = CARTESIAN_POINT ( 'NONE',  ( 2.856031735173683463E-13, -1.001761081702535121E-14, 81.80000000000001137 ) ) ;
#291 = ADVANCED_FACE ( 'NONE', ( #309 ), #182, .T. ) ;
#292 = EDGE_LOOP ( 'NONE', ( #78, #319, #286, #105 ) ) ;
#293 = VERTEX_POINT ( 'NONE', #138 ) ;
#294 = AXIS2_PLACEMENT_3D ( 'NONE', #132, #259, #287 ) ;
#295 = CIRCLE ( 'NONE', #47, 6.000000000000000000 ) ;
#296 = DIRECTION ( 'NONE',  ( 1.000000000000000000, 0.000000000000000000, -3.491481338843133355E-15 ) ) ;
#297 = CARTESIAN_POINT ( 'NONE',  ( 1.961514349037406202E-13, -6.000000000000000000, 30.13910427085457400 ) ) ;
#298 = DIRECTION ( 'NONE',  ( -3.491481338843133355E-15, 0.000000000000000000, -1.000000000000000000 ) ) ;
#299 = SURFACE_STYLE_FILL_AREA ( #192 ) ;
#300 = DIRECTION ( 'NONE',  ( 3.491481338843133355E-15, -0.000000000000000000, 1.000000000000000000 ) ) ;
#301 = CARTESIAN_POINT ( 'NONE',  ( 1.047444401652940007E-13, -3.673940397442059178E-15, 30.00000000000000000 ) ) ;
#302 = SURFACE_STYLE_FILL_AREA ( #233 ) ;
#303 = FACE_OUTER_BOUND ( 'NONE', #50, .T. ) ;
#304 = AXIS2_PLACEMENT_3D ( 'NONE', #130, #270, #341 ) ;
#305 = CARTESIAN_POINT ( 'NONE',  ( 0.000000000000000000, 0.000000000000000000, 0.000000000000000000 ) ) ;
#306 = DIRECTION ( 'NONE',  ( -3.491481338843133355E-15, 1.224646799147353207E-16, -1.000000000000000000 ) ) ;
#307 = DIRECTION ( 'NONE',  ( 3.491481338843133355E-15, -0.000000000000000000, 1.000000000000000000 ) ) ;
#308 = AXIS2_PLACEMENT_3D ( 'NONE', #328, #255, #64 ) ;
#309 = FACE_OUTER_BOUND ( 'NONE', #179, .T. ) ;
#310 = ORIENTED_EDGE ( 'NONE', *, *, #200, .F. ) ;
#311 = PRODUCT_DEFINITION ( 'UNKNOWN', '', #139, #206 ) ;
#312 = UNCERTAINTY_MEASURE_WITH_UNIT (LENGTH_MEASURE( 1.000000000000000082E-05 ), #94, 'distance_accuracy_value', 'NONE');
#313 = DIRECTION ( 'NONE',  ( -3.491481338843133355E-15, 1.224646799147353207E-16, -1.000000000000000000 ) ) ;
#314 = CARTESIAN_POINT ( 'NONE',  ( 2.897929511239800811E-13, -1.016456843292303150E-14, 83.00000000000000000 ) ) ;
#315 = EDGE_CURVE ( 'NONE', #9, #243, #295, .T. ) ;
#316 = VERTEX_POINT ( 'NONE', #297 ) ;
#317 = AXIS2_PLACEMENT_3D ( 'NONE', #239, #334, #318 ) ;
#318 = DIRECTION ( 'NONE',  ( 0.000000000000000000, 1.000000000000000000, 0.000000000000000000 ) ) ;
#319 = ORIENTED_EDGE ( 'NONE', *, *, #6, .F. ) ;
#320 = FACE_OUTER_BOUND ( 'NONE', #323, .T. ) ;
#321 = AXIS2_PLACEMENT_3D ( 'NONE', #135, #300, #216 ) ;
#322 = ORIENTED_EDGE ( 'NONE', *, *, #41, .T. ) ;
#323 = EDGE_LOOP ( 'NONE', ( #310, #271, #215, #209 ) ) ;
#324 = ADVANCED_FACE ( 'NONE', ( #246 ), #4, .T. ) ;
#325 = ORIENTED_EDGE ( 'NONE', *, *, #118, .T. ) ;
#326 = CIRCLE ( 'NONE', #162, 5.950000000000000178 ) ;
#327 = PRODUCT ( '42589', '42589', '', ( #221 ) ) ;
#328 = CARTESIAN_POINT ( 'NONE',  ( 0.000000000000000000, 0.000000000000000000, 0.000000000000000000 ) ) ;
#329 = CARTESIAN_POINT ( 'NONE',  ( 7.347880794884094098E-16, -6.000000000000000000, -7.347880794884144388E-16 ) ) ;
#330 =( GEOMETRIC_REPRESENTATION_CONTEXT ( 3 ) GLOBAL_UNCERTAINTY_ASSIGNED_CONTEXT ( ( #129 ) ) GLOBAL_UNIT_ASSIGNED_CONTEXT ( ( #1, #57, #88 ) ) REPRESENTATION_CONTEXT ( 'NONE', 'WORKASPACE' ) );
#331 = DIRECTION ( 'NONE',  ( 0.000000000000000000, -1.000000000000000000, 0.000000000000000000 ) ) ;
#332 = PRESENTATION_STYLE_ASSIGNMENT (( #227 ) ) ;
#333 = AXIS2_PLACEMENT_3D ( 'NONE', #301, #275, #35 ) ;
#334 = DIRECTION ( 'NONE',  ( -3.491481338843133355E-15, 1.224646799147347537E-16, -1.000000000000000000 ) ) ;
#335 = CONICAL_SURFACE ( 'NONE', #317, 6.000000000000000000, 0.7853981633974465026 ) ;
#336 = ORIENTED_EDGE ( 'NONE', *, *, #193, .F. ) ;
#337 = CARTESIAN_POINT ( 'NONE',  ( 5.950000000000000178, 0.000000000000000000, -2.077431396611664346E-14 ) ) ;
#338 = ADVANCED_FACE ( 'NONE', ( #303 ), #250, .F. ) ;
#339 = PLANE ( 'NONE',  #173 ) ;
#340 = ORIENTED_EDGE ( 'NONE', *, *, #104, .F. ) ;
#341 = DIRECTION ( 'NONE',  ( 0.000000000000000000, -1.000000000000000000, 0.000000000000000000 ) ) ;
#342 = CIRCLE ( 'NONE', #37, 5.999999999999996447 ) ;
#343 = ORIENTED_EDGE ( 'NONE', *, *, #118, .F. ) ;
ENDSEC;
END-ISO-10303-21;
