ISO-10303-21;
HEADER;
FILE_DESCRIPTION (( 'STEP AP214' ),
    '1' );
FILE_NAME ('42580.step',
    '2024-04-04T09:33:01',
    ( '' ),
    ( '' ),
    'SwSTEP 2.0',
    'SolidWorks 2022',
    '' );
FILE_SCHEMA (( 'AUTOMOTIVE_DESIGN' ));
ENDSEC;

DATA;
#1 = EDGE_CURVE ( 'NONE', #34, #208, #106, .T. ) ;
#2 = CARTESIAN_POINT ( 'NONE',  ( 1.969195475107526708E-13, -6.907007947191070402E-15, 56.39999999999998437 ) ) ;
#3 = DIRECTION ( 'NONE',  ( 3.491481338843133355E-15, -1.224646799147353207E-16, 1.000000000000000000 ) ) ;
#4 = ORIENTED_EDGE ( 'NONE', *, *, #82, .F. ) ;
#5 = SURFACE_STYLE_FILL_AREA ( #128 ) ;
#6 = STYLED_ITEM ( 'NONE', ( #133 ), #293 ) ;
#7 = DIRECTION ( 'NONE',  ( -3.491481338843133355E-15, 1.224646799147353207E-16, -1.000000000000000000 ) ) ;
#8 = MECHANICAL_DESIGN_GEOMETRIC_PRESENTATION_REPRESENTATION (  '', ( #108 ), #250 ) ;
#9 = CARTESIAN_POINT ( 'NONE',  ( 5.273349088839547028E-14, 2.949999999999998845, 15.00000000000000000 ) ) ;
#10 = EDGE_CURVE ( 'NONE', #83, #164, #179, .T. ) ;
#11 = DIRECTION ( 'NONE',  ( -4.275831445896958607E-31, -1.000000000000000000, -1.224646799147353207E-16 ) ) ;
#12 = APPLICATION_CONTEXT ( 'automotive_design' ) ;
#13 = DIRECTION ( 'NONE',  ( 0.000000000000000000, -1.000000000000000000, 0.000000000000000000 ) ) ;
#14 = ORIENTED_EDGE ( 'NONE', *, *, #45, .T. ) ;
#15 = CARTESIAN_POINT ( 'NONE',  ( 5.285790004848913502E-14, 2.999999999999993339, 15.13910427085457755 ) ) ;
#16 = ORIENTED_EDGE ( 'NONE', *, *, #123, .T. ) ;
#17 = FACE_OUTER_BOUND ( 'NONE', #147, .T. ) ;
#18 = ORIENTED_EDGE ( 'NONE', *, *, #114, .F. ) ;
#19 = CIRCLE ( 'NONE', #88, 2.950000000000000178 ) ;
#20 = ORIENTED_EDGE ( 'NONE', *, *, #268, .F. ) ;
#21 =( LENGTH_UNIT ( ) NAMED_UNIT ( * ) SI_UNIT ( .MILLI., .METRE. ) );
#22 = VECTOR ( 'NONE', #263, 1000.000000000000000 ) ;
#23 = DIRECTION ( 'NONE',  ( -3.491481338843133355E-15, 1.224646799147353207E-16, -1.000000000000000000 ) ) ;
#24 = DIRECTION ( 'NONE',  ( -3.491481338843133355E-15, 0.000000000000000000, -1.000000000000000000 ) ) ;
#25 = EDGE_LOOP ( 'NONE', ( #203, #16 ) ) ;
#26 = DIRECTION ( 'NONE',  ( 4.275831445896958607E-31, 1.000000000000000000, 1.224646799147353207E-16 ) ) ;
#27 = CONICAL_SURFACE ( 'NONE', #222, 2.999999999999996447, 0.7853981633974410625 ) ;
#28 = LINE ( 'NONE', #9, #331 ) ;
#29 = DIRECTION ( 'NONE',  ( 3.327098416510793526E-15, 0.3382550599108770650, 0.9410544694355843509 ) ) ;
#30 = ADVANCED_BREP_SHAPE_REPRESENTATION ( '42580', ( #186, #293, #275 ), #168 ) ;
#31 = VERTEX_POINT ( 'NONE', #220 ) ;
#32 = CARTESIAN_POINT ( 'NONE',  ( 1.982976465481754348E-13, -2.399999999999995026, 57.00000000000000000 ) ) ;
#33 = COLOUR_RGB ( '',0.8980392156862745390, 0.9176470588235293713, 0.9294117647058823817 ) ;
#34 = VERTEX_POINT ( 'NONE', #215 ) ;
#35 = ADVANCED_FACE ( 'NONE', ( #322 ), #81, .F. ) ;
#36 = FILL_AREA_STYLE ('',( #125 ) ) ;
#37 = DIRECTION ( 'NONE',  ( 3.491481338843133355E-15, -1.224646799147353207E-16, 1.000000000000000000 ) ) ;
#38 = ADVANCED_FACE ( 'NONE', ( #245 ), #243, .T. ) ;
#39 = FACE_OUTER_BOUND ( 'NONE', #282, .T. ) ;
#40 = STYLED_ITEM ( 'NONE', ( #284 ), #186 ) ;
#41 = VERTEX_POINT ( 'NONE', #194 ) ;
#42 = PLANE ( 'NONE',  #135 ) ;
#43 = CARTESIAN_POINT ( 'NONE',  ( 2.950000000000052136, 0.000000000000000000, 14.99999999999998934 ) ) ;
#44 = DIRECTION ( 'NONE',  ( 4.275831445896958607E-31, 1.000000000000000000, 1.224646799147353207E-16 ) ) ;
#45 = EDGE_CURVE ( 'NONE', #139, #208, #28, .T. ) ;
#46 = DIRECTION ( 'NONE',  ( 3.491481338843133355E-15, -0.000000000000000000, 1.000000000000000000 ) ) ;
#47 = PRODUCT_DEFINITION_SHAPE ( 'NONE', 'NONE',  #340 ) ;
#48 = AXIS2_PLACEMENT_3D ( 'NONE', #113, #7, #26 ) ;
#49 = DIRECTION ( 'NONE',  ( -3.491481338843133355E-15, 1.224646799147343593E-16, -1.000000000000000000 ) ) ;
#50 = ORIENTED_EDGE ( 'NONE', *, *, #287, .F. ) ;
#51 = SURFACE_STYLE_FILL_AREA ( #326 ) ;
#52 = ORIENTED_EDGE ( 'NONE', *, *, #1, .F. ) ;
#53 = DIRECTION ( 'NONE',  ( -3.491481338843133355E-15, 1.224646799147353207E-16, -1.000000000000000000 ) ) ;
#54 = PRODUCT_DEFINITION_CONTEXT ( 'detailed design', #227, 'design' ) ;
#55 = AXIS2_PLACEMENT_3D ( 'NONE', #235, #315, #73 ) ;
#56 = CARTESIAN_POINT ( 'NONE',  ( 1.252561178193650578E-13, -3.000000000000003553, 56.39999999999998437 ) ) ;
#57 = SURFACE_STYLE_USAGE ( .BOTH. , #320 ) ;
#58 =( LENGTH_UNIT ( ) NAMED_UNIT ( * ) SI_UNIT ( .MILLI., .METRE. ) );
#59 = EDGE_LOOP ( 'NONE', ( #4, #190, #192, #124 ) ) ;
#60 = DIRECTION ( 'NONE',  ( 0.000000000000000000, 1.000000000000000000, 0.000000000000000000 ) ) ;
#61 = DIRECTION ( 'NONE',  ( 3.491481338843133355E-15, -1.224646799147353207E-16, 1.000000000000000000 ) ) ;
#62 = CARTESIAN_POINT ( 'NONE',  ( 1.969195475107526708E-13, -6.907007947191070402E-15, 56.39999999999998437 ) ) ;
#63 = ADVANCED_FACE ( 'NONE', ( #197 ), #302, .T. ) ;
#64 = DIRECTION ( 'NONE',  ( 3.491481338843133355E-15, -0.000000000000000000, 1.000000000000000000 ) ) ;
#65 = EDGE_LOOP ( 'NONE', ( #246, #14, #78, #50 ) ) ;
#66 =( NAMED_UNIT ( * ) PLANE_ANGLE_UNIT ( ) SI_UNIT ( $, .RADIAN. ) );
#67 = AXIS2_PLACEMENT_3D ( 'NONE', #329, #170, #60 ) ;
#68 = AXIS2_PLACEMENT_3D ( 'NONE', #157, #23, #153 ) ;
#69 = SURFACE_SIDE_STYLE ('',( #122 ) ) ;
#70 = CARTESIAN_POINT ( 'NONE',  ( 5.237222008264700033E-14, -1.836970198721029589E-15, 15.00000000000000000 ) ) ;
#71 = VERTEX_POINT ( 'NONE', #216 ) ;
#72 = AXIS2_PLACEMENT_3D ( 'NONE', #307, #64, #205 ) ;
#73 = DIRECTION ( 'NONE',  ( 0.000000000000000000, -1.000000000000000000, 0.000000000000000000 ) ) ;
#74 = LINE ( 'NONE', #188, #22 ) ;
#75 = APPLICATION_PROTOCOL_DEFINITION ( 'draft international standard', 'automotive_design', 1998, #12 ) ;
#76 = EDGE_LOOP ( 'NONE', ( #318, #241 ) ) ;
#77 = ADVANCED_FACE ( 'NONE', ( #324 ), #138, .T. ) ;
#78 = ORIENTED_EDGE ( 'NONE', *, *, #91, .T. ) ;
#79 = DIRECTION ( 'NONE',  ( 3.491481338843133355E-15, -0.000000000000000000, 1.000000000000000000 ) ) ;
#80 = CIRCLE ( 'NONE', #72, 2.950000000000000178 ) ;
#81 = PLANE ( 'NONE',  #107 ) ;
#82 = EDGE_CURVE ( 'NONE', #94, #31, #237, .T. ) ;
#83 = VERTEX_POINT ( 'NONE', #56 ) ;
#84 = CARTESIAN_POINT ( 'NONE',  ( 5.285790004848913502E-14, -1.854005558726008114E-15, 15.13910427085457755 ) ) ;
#85 = CARTESIAN_POINT ( 'NONE',  ( 5.237222008264700033E-14, -1.836970198721029589E-15, 15.00000000000000000 ) ) ;
#86 = AXIS2_PLACEMENT_3D ( 'NONE', #202, #144, #278 ) ;
#87 = FACE_OUTER_BOUND ( 'NONE', #25, .T. ) ;
#88 = AXIS2_PLACEMENT_3D ( 'NONE', #316, #312, #154 ) ;
#89 = APPLICATION_PROTOCOL_DEFINITION ( 'draft international standard', 'automotive_design', 1998, #227 ) ;
#90 = LINE ( 'NONE', #148, #119 ) ;
#91 = EDGE_CURVE ( 'NONE', #208, #34, #238, .T. ) ;
#92 = DIRECTION ( 'NONE',  ( 1.000000000000000000, 0.000000000000000000, -3.528251137579947388E-15 ) ) ;
#93 = CIRCLE ( 'NONE', #68, 2.950000000000000178 ) ;
#94 = VERTEX_POINT ( 'NONE', #272 ) ;
#95 = ADVANCED_FACE ( 'NONE', ( #195 ), #172, .T. ) ;
#96 = CYLINDRICAL_SURFACE ( 'NONE', #291, 2.999999999999996447 ) ;
#97 = FILL_AREA_STYLE_COLOUR ( '', #158 ) ;
#98 = DIRECTION ( 'NONE',  ( -3.491481338843133355E-15, 1.224646799147353207E-16, -1.000000000000000000 ) ) ;
#99 = ADVANCED_FACE ( 'NONE', ( #39 ), #152, .T. ) ;
#100 = CIRCLE ( 'NONE', #280, 2.399999999999987921 ) ;
#101 = PRODUCT_DEFINITION_FORMATION_WITH_SPECIFIED_SOURCE ( 'ANY', '', #228, .NOT_KNOWN. ) ;
#102 =( NAMED_UNIT ( * ) PLANE_ANGLE_UNIT ( ) SI_UNIT ( $, .RADIAN. ) );
#103 = LINE ( 'NONE', #259, #265 ) ;
#104 = CARTESIAN_POINT ( 'NONE',  ( 5.237222008264700033E-14, -2.950000000000001954, 15.00000000000000000 ) ) ;
#105 = ORIENTED_EDGE ( 'NONE', *, *, #114, .T. ) ;
#106 = CIRCLE ( 'NONE', #257, 2.999999999999994671 ) ;
#107 = AXIS2_PLACEMENT_3D ( 'NONE', #296, #330, #240 ) ;
#108 = STYLED_ITEM ( 'NONE', ( #300 ), #30 ) ;
#109 = CARTESIAN_POINT ( 'NONE',  ( -2.949999999999946887, 3.612708057484691604E-16, 15.00000000000001066 ) ) ;
#110 = UNCERTAINTY_MEASURE_WITH_UNIT (LENGTH_MEASURE( 1.000000000000000082E-05 ), #143, 'distance_accuracy_value', 'NONE');
#111 = DIRECTION ( 'NONE',  ( 1.000000000000000000, 0.000000000000000000, -3.528251137579947388E-15 ) ) ;
#112 =( NAMED_UNIT ( * ) SI_UNIT ( $, .STERADIAN. ) SOLID_ANGLE_UNIT ( ) );
#113 = CARTESIAN_POINT ( 'NONE',  ( 0.000000000000000000, 0.000000000000000000, 0.000000000000000000 ) ) ;
#114 = EDGE_CURVE ( 'NONE', #303, #83, #120, .T. ) ;
#115 = EDGE_LOOP ( 'NONE', ( #206, #136, #213, #239 ) ) ;
#116 = ORIENTED_EDGE ( 'NONE', *, *, #334, .F. ) ;
#117 = ORIENTED_EDGE ( 'NONE', *, *, #10, .T. ) ;
#118 = EDGE_CURVE ( 'NONE', #256, #94, #80, .T. ) ;
#119 = VECTOR ( 'NONE', #253, 1000.000000000000000 ) ;
#120 = LINE ( 'NONE', #251, #185 ) ;
#121 = ORIENTED_EDGE ( 'NONE', *, *, #268, .T. ) ;
#122 = SURFACE_STYLE_FILL_AREA ( #36 ) ;
#123 = EDGE_CURVE ( 'NONE', #303, #41, #100, .T. ) ;
#124 = ORIENTED_EDGE ( 'NONE', *, *, #223, .F. ) ;
#125 = FILL_AREA_STYLE_COLOUR ( '', #33 ) ;
#126 = ORIENTED_EDGE ( 'NONE', *, *, #255, .F. ) ;
#127 = DIRECTION ( 'NONE',  ( 2.486899575160350335E-14, -1.000000000000000000, 0.000000000000000000 ) ) ;
#128 = FILL_AREA_STYLE ('',( #97 ) ) ;
#129 = DIRECTION ( 'NONE',  ( 3.491481338843133355E-15, -1.224646799147353207E-16, 1.000000000000000000 ) ) ;
#130 =( NAMED_UNIT ( * ) SI_UNIT ( $, .STERADIAN. ) SOLID_ANGLE_UNIT ( ) );
#131 = ORIENTED_EDGE ( 'NONE', *, *, #175, .F. ) ;
#132 = ADVANCED_FACE ( 'NONE', ( #87 ), #149, .T. ) ;
#133 = PRESENTATION_STYLE_ASSIGNMENT (( #57 ) ) ;
#134 = DIRECTION ( 'NONE',  ( 0.000000000000000000, 1.000000000000000000, 0.000000000000000000 ) ) ;
#135 = AXIS2_PLACEMENT_3D ( 'NONE', #159, #24, #209 ) ;
#136 = ORIENTED_EDGE ( 'NONE', *, *, #82, .T. ) ;
#137 = ADVANCED_FACE ( 'NONE', ( #17 ), #27, .T. ) ;
#138 = CYLINDRICAL_SURFACE ( 'NONE', #48, 2.999999999999996447 ) ;
#139 = VERTEX_POINT ( 'NONE', #181 ) ;
#140 = ORIENTED_EDGE ( 'NONE', *, *, #178, .F. ) ;
#141 = ORIENTED_EDGE ( 'NONE', *, *, #178, .T. ) ;
#142 = PRODUCT_CONTEXT ( 'NONE', #12, 'mechanical' ) ;
#143 =( LENGTH_UNIT ( ) NAMED_UNIT ( * ) SI_UNIT ( .MILLI., .METRE. ) );
#144 = DIRECTION ( 'NONE',  ( -3.491481338843133355E-15, 1.224646799147343593E-16, -1.000000000000000000 ) ) ;
#145 = AXIS2_PLACEMENT_3D ( 'NONE', #248, #61, #11 ) ;
#146 = PRESENTATION_LAYER_ASSIGNMENT (  '', '', ( #108 ) ) ;
#147 = EDGE_LOOP ( 'NONE', ( #18, #335, #121, #294 ) ) ;
#148 = CARTESIAN_POINT ( 'NONE',  ( 1.282749433769086181E-30, 2.999999999999996447, 3.673940397442055431E-16 ) ) ;
#149 = PLANE ( 'NONE',  #145 ) ;
#150 = EDGE_LOOP ( 'NONE', ( #177, #285 ) ) ;
#151 = DIRECTION ( 'NONE',  ( 3.491481338843133355E-15, -0.000000000000000000, 1.000000000000000000 ) ) ;
#152 = CONICAL_SURFACE ( 'NONE', #86, 2.999999999999996447, 0.7853981633974410625 ) ;
#153 = DIRECTION ( 'NONE',  ( 0.000000000000000000, 1.000000000000000000, 0.000000000000000000 ) ) ;
#154 = DIRECTION ( 'NONE',  ( 1.000000000000000000, 0.000000000000000000, -3.491481338843132961E-15 ) ) ;
#155 = UNCERTAINTY_MEASURE_WITH_UNIT (LENGTH_MEASURE( 1.000000000000000082E-05 ), #21, 'distance_accuracy_value', 'NONE');
#156 = LINE ( 'NONE', #43, #211 ) ;
#157 = CARTESIAN_POINT ( 'NONE',  ( 5.237222008264700033E-14, -1.836970198721029589E-15, 15.00000000000000000 ) ) ;
#158 = COLOUR_RGB ( '',0.8980392156862745390, 0.9176470588235293713, 0.9294117647058823817 ) ;
#159 = CARTESIAN_POINT ( 'NONE',  ( 5.237222008264700033E-14, 2.949999999999998845, 15.00000000000000000 ) ) ;
#160 = EDGE_CURVE ( 'NONE', #71, #31, #173, .T. ) ;
#161 = FILL_AREA_STYLE_COLOUR ( '', #199 ) ;
#162 = CARTESIAN_POINT ( 'NONE',  ( 5.237222008264700033E-14, 0.000000000000000000, 15.00000000000000000 ) ) ;
#163 = UNCERTAINTY_MEASURE_WITH_UNIT (LENGTH_MEASURE( 1.000000000000000082E-05 ), #58, 'distance_accuracy_value', 'NONE');
#164 = VERTEX_POINT ( 'NONE', #338 ) ;
#165 = CLOSED_SHELL ( 'NONE', ( #63, #166, #283, #35 ) ) ;
#166 = ADVANCED_FACE ( 'NONE', ( #333 ), #225, .T. ) ;
#167 = CIRCLE ( 'NONE', #55, 2.399999999999987921 ) ;
#168 =( GEOMETRIC_REPRESENTATION_CONTEXT ( 3 ) GLOBAL_UNCERTAINTY_ASSIGNED_CONTEXT ( ( #155 ) ) GLOBAL_UNIT_ASSIGNED_CONTEXT ( ( #21, #210, #266 ) ) REPRESENTATION_CONTEXT ( 'NONE', 'WORKASPACE' ) );
#169 = SURFACE_STYLE_USAGE ( .BOTH. , #295 ) ;
#170 = DIRECTION ( 'NONE',  ( -3.491481338843133355E-15, 1.224646799147353207E-16, -1.000000000000000000 ) ) ;
#171 = DIRECTION ( 'NONE',  ( -2.398081733190338127E-14, -1.000000000000000000, 0.000000000000000000 ) ) ;
#172 = PLANE ( 'NONE',  #264 ) ;
#173 = CIRCLE ( 'NONE', #341, 2.949999999999998845 ) ;
#174 = DIRECTION ( 'NONE',  ( -2.382254525458735219E-15, -0.7071067811865422437, -0.7071067811865527908 ) ) ;
#175 = EDGE_CURVE ( 'NONE', #182, #139, #270, .T. ) ;
#176 = CARTESIAN_POINT ( 'NONE',  ( 1.990144363140586139E-13, -6.980486755139912911E-15, 57.00000000000000000 ) ) ;
#177 = ORIENTED_EDGE ( 'NONE', *, *, #175, .T. ) ;
#178 = EDGE_CURVE ( 'NONE', #164, #208, #90, .T. ) ;
#179 = CIRCLE ( 'NONE', #262, 2.999999999999996447 ) ;
#180 = AXIS2_PLACEMENT_3D ( 'NONE', #70, #129, #234 ) ;
#181 = CARTESIAN_POINT ( 'NONE',  ( 5.297939248831440537E-14, 2.949999999999998845, 15.00000000000000000 ) ) ;
#182 = VERTEX_POINT ( 'NONE', #279 ) ;
#183 = DIRECTION ( 'NONE',  ( 3.491481338843133355E-15, -0.000000000000000000, 1.000000000000000000 ) ) ;
#184 = DIRECTION ( 'NONE',  ( 1.000000000000000000, 0.000000000000000000, -3.528251137579948177E-15 ) ) ;
#185 = VECTOR ( 'NONE', #174, 1000.000000000000000 ) ;
#186 = MANIFOLD_SOLID_BREP ( 'Corps-Déplacer/Copier1[1]', #313 ) ;
#187 = CARTESIAN_POINT ( 'NONE',  ( 2.950000000000000178, 0.000000000000000000, -1.029986994958724340E-14 ) ) ;
#188 = CARTESIAN_POINT ( 'NONE',  ( 3.673940397442042612E-16, -2.999999999999996447, -3.673940397442067757E-16 ) ) ;
#189 = CARTESIAN_POINT ( 'NONE',  ( 1.969195475107526708E-13, -6.907007947191070402E-15, 56.39999999999998437 ) ) ;
#190 = ORIENTED_EDGE ( 'NONE', *, *, #334, .T. ) ;
#191 = ORIENTED_EDGE ( 'NONE', *, *, #287, .T. ) ;
#192 = ORIENTED_EDGE ( 'NONE', *, *, #325, .T. ) ;
#193 = AXIS2_PLACEMENT_3D ( 'NONE', #207, #281, #309 ) ;
#194 = CARTESIAN_POINT ( 'NONE',  ( 1.979669919124056423E-13, 2.399999999999981259, 57.00000000000000000 ) ) ;
#195 = FACE_OUTER_BOUND ( 'NONE', #150, .T. ) ;
#196 = DIRECTION ( 'NONE',  ( 0.000000000000000000, 0.000000000000000000, 1.000000000000000000 ) ) ;
#197 = FACE_OUTER_BOUND ( 'NONE', #115, .T. ) ;
#198 =( GEOMETRIC_REPRESENTATION_CONTEXT ( 3 ) GLOBAL_UNCERTAINTY_ASSIGNED_CONTEXT ( ( #110 ) ) GLOBAL_UNIT_ASSIGNED_CONTEXT ( ( #143, #102, #130 ) ) REPRESENTATION_CONTEXT ( 'NONE', 'WORKASPACE' ) );
#199 = COLOUR_RGB ( '',0.8980392156862745390, 0.9176470588235293713, 0.9294117647058823817 ) ;
#200 = SURFACE_STYLE_USAGE ( .BOTH. , #69 ) ;
#201 = PRODUCT_RELATED_PRODUCT_CATEGORY ( 'part', '', ( #228 ) ) ;
#202 = CARTESIAN_POINT ( 'NONE',  ( 1.969195475107526708E-13, -6.907007947191070402E-15, 56.39999999999998437 ) ) ;
#203 = ORIENTED_EDGE ( 'NONE', *, *, #219, .T. ) ;
#204 = PRESENTATION_LAYER_ASSIGNMENT (  '', '', ( #6 ) ) ;
#205 = DIRECTION ( 'NONE',  ( 1.000000000000000000, 0.000000000000000000, -3.491481338843132961E-15 ) ) ;
#206 = ORIENTED_EDGE ( 'NONE', *, *, #118, .T. ) ;
#207 = CARTESIAN_POINT ( 'NONE',  ( 5.237222008264700033E-14, -1.836970198721029589E-15, 15.00000000000000000 ) ) ;
#208 = VERTEX_POINT ( 'NONE', #15 ) ;
#209 = DIRECTION ( 'NONE',  ( -1.000000000000000000, 0.000000000000000000, 3.491481338843133355E-15 ) ) ;
#210 =( NAMED_UNIT ( * ) PLANE_ANGLE_UNIT ( ) SI_UNIT ( $, .RADIAN. ) );
#211 = VECTOR ( 'NONE', #46, 1000.000000000000000 ) ;
#212 = EDGE_LOOP ( 'NONE', ( #343, #131, #191, #310 ) ) ;
#213 = ORIENTED_EDGE ( 'NONE', *, *, #160, .F. ) ;
#214 =( GEOMETRIC_REPRESENTATION_CONTEXT ( 3 ) GLOBAL_UNCERTAINTY_ASSIGNED_CONTEXT ( ( #323 ) ) GLOBAL_UNIT_ASSIGNED_CONTEXT ( ( #244, #297, #112 ) ) REPRESENTATION_CONTEXT ( 'NONE', 'WORKASPACE' ) );
#215 = CARTESIAN_POINT ( 'NONE',  ( 1.252561178193650831E-13, -2.999999999999996447, 15.13910427085457755 ) ) ;
#216 = CARTESIAN_POINT ( 'NONE',  ( 2.950000000000051248, 0.000000000000000000, 14.99999999999998934 ) ) ;
#217 = DIRECTION ( 'NONE',  ( -3.491481338843133355E-15, 1.224646799147353207E-16, -1.000000000000000000 ) ) ;
#218 = CIRCLE ( 'NONE', #274, 2.999999999999996447 ) ;
#219 = EDGE_CURVE ( 'NONE', #41, #303, #167, .T. ) ;
#220 = CARTESIAN_POINT ( 'NONE',  ( -2.949999999999945999, 3.612708057484691111E-16, 15.00000000000001066 ) ) ;
#221 = CARTESIAN_POINT ( 'NONE',  ( 0.000000000000000000, 0.000000000000000000, 0.000000000000000000 ) ) ;
#222 = AXIS2_PLACEMENT_3D ( 'NONE', #62, #277, #224 ) ;
#223 = EDGE_CURVE ( 'NONE', #31, #71, #233, .T. ) ;
#224 = DIRECTION ( 'NONE',  ( 0.000000000000000000, 1.000000000000000000, 0.000000000000000000 ) ) ;
#225 = CYLINDRICAL_SURFACE ( 'NONE', #299, 2.949999999999999289 ) ;
#226 = ORIENTED_EDGE ( 'NONE', *, *, #242, .T. ) ;
#227 = APPLICATION_CONTEXT ( 'automotive_design' ) ;
#228 = PRODUCT ( '42580', '42580', '', ( #142 ) ) ;
#229 = AXIS2_PLACEMENT_3D ( 'NONE', #261, #151, #184 ) ;
#230 = CARTESIAN_POINT ( 'NONE',  ( 5.237222008264700033E-14, 0.000000000000000000, 15.00000000000000000 ) ) ;
#231 = ADVANCED_FACE ( 'NONE', ( #311 ), #328, .T. ) ;
#232 = FACE_OUTER_BOUND ( 'NONE', #337, .T. ) ;
#233 = CIRCLE ( 'NONE', #229, 2.949999999999998845 ) ;
#234 = DIRECTION ( 'NONE',  ( 0.000000000000000000, -1.000000000000000000, 0.000000000000000000 ) ) ;
#235 = CARTESIAN_POINT ( 'NONE',  ( 1.990144363140586139E-13, -6.980486755139912911E-15, 57.00000000000000000 ) ) ;
#236 = ORIENTED_EDGE ( 'NONE', *, *, #255, .T. ) ;
#237 = LINE ( 'NONE', #109, #304 ) ;
#238 = CIRCLE ( 'NONE', #67, 2.999999999999994671 ) ;
#239 = ORIENTED_EDGE ( 'NONE', *, *, #325, .F. ) ;
#240 = DIRECTION ( 'NONE',  ( 1.000000000000000000, 0.000000000000000000, -3.491481338843133355E-15 ) ) ;
#241 = ORIENTED_EDGE ( 'NONE', *, *, #223, .T. ) ;
#242 = EDGE_CURVE ( 'NONE', #83, #34, #74, .T. ) ;
#243 = CONICAL_SURFACE ( 'NONE', #314, 2.950000000000000178, 0.3450620389298139079 ) ;
#244 =( LENGTH_UNIT ( ) NAMED_UNIT ( * ) SI_UNIT ( .MILLI., .METRE. ) );
#245 = FACE_OUTER_BOUND ( 'NONE', #212, .T. ) ;
#246 = ORIENTED_EDGE ( 'NONE', *, *, #260, .F. ) ;
#247 = CARTESIAN_POINT ( 'NONE',  ( 5.237222008264700033E-14, 0.000000000000000000, 15.00000000000000000 ) ) ;
#248 = CARTESIAN_POINT ( 'NONE',  ( 1.990144363140586139E-13, -6.980486755139912911E-15, 57.00000000000000000 ) ) ;
#249 = AXIS2_PLACEMENT_3D ( 'NONE', #162, #271, #111 ) ;
#250 =( GEOMETRIC_REPRESENTATION_CONTEXT ( 3 ) GLOBAL_UNCERTAINTY_ASSIGNED_CONTEXT ( ( #163 ) ) GLOBAL_UNIT_ASSIGNED_CONTEXT ( ( #58, #66, #305 ) ) REPRESENTATION_CONTEXT ( 'NONE', 'WORKASPACE' ) );
#251 = CARTESIAN_POINT ( 'NONE',  ( 1.972869415504968762E-13, -3.000000000000003553, 56.39999999999998437 ) ) ;
#252 = ORIENTED_EDGE ( 'NONE', *, *, #242, .F. ) ;
#253 = DIRECTION ( 'NONE',  ( -3.491481338843133355E-15, 1.224646799147353207E-16, -1.000000000000000000 ) ) ;
#254 = DIRECTION ( 'NONE',  ( 1.000000000000000000, 0.000000000000000000, -3.528251137579948177E-15 ) ) ;
#255 = EDGE_CURVE ( 'NONE', #164, #83, #218, .T. ) ;
#256 = VERTEX_POINT ( 'NONE', #187 ) ;
#257 = AXIS2_PLACEMENT_3D ( 'NONE', #84, #53, #134 ) ;
#258 = DIRECTION ( 'NONE',  ( 3.285674118869268127E-15, -0.3382550599108772316, 0.9410544694355842399 ) ) ;
#259 = CARTESIAN_POINT ( 'NONE',  ( 1.969195475107526708E-13, 2.999999999999989786, 56.39999999999998437 ) ) ;
#260 = EDGE_CURVE ( 'NONE', #139, #182, #93, .T. ) ;
#261 = CARTESIAN_POINT ( 'NONE',  ( 5.237222008264700033E-14, 0.000000000000000000, 15.00000000000000000 ) ) ;
#262 = AXIS2_PLACEMENT_3D ( 'NONE', #2, #269, #171 ) ;
#263 = DIRECTION ( 'NONE',  ( -3.491481338843133355E-15, 1.224646799147353207E-16, -1.000000000000000000 ) ) ;
#264 = AXIS2_PLACEMENT_3D ( 'NONE', #273, #217, #327 ) ;
#265 = VECTOR ( 'NONE', #317, 999.9999999999998863 ) ;
#266 =( NAMED_UNIT ( * ) SI_UNIT ( $, .STERADIAN. ) SOLID_ANGLE_UNIT ( ) );
#267 = ORIENTED_EDGE ( 'NONE', *, *, #118, .F. ) ;
#268 = EDGE_CURVE ( 'NONE', #41, #164, #103, .T. ) ;
#269 = DIRECTION ( 'NONE',  ( -3.491481338843133355E-15, 1.224646799147343593E-16, -1.000000000000000000 ) ) ;
#270 = CIRCLE ( 'NONE', #193, 2.950000000000000178 ) ;
#271 = DIRECTION ( 'NONE',  ( 3.491481338843133355E-15, -0.000000000000000000, 1.000000000000000000 ) ) ;
#272 = CARTESIAN_POINT ( 'NONE',  ( -2.950000000000000178, 3.612708057484724144E-16, 1.029986994958724498E-14 ) ) ;
#273 = CARTESIAN_POINT ( 'NONE',  ( 5.237222008264700033E-14, 2.949999999999998845, 15.00000000000000000 ) ) ;
#274 = AXIS2_PLACEMENT_3D ( 'NONE', #189, #49, #127 ) ;
#275 = AXIS2_PLACEMENT_3D ( 'NONE', #221, #196, #276 ) ;
#276 = DIRECTION ( 'NONE',  ( 1.000000000000000000, 0.000000000000000000, 0.000000000000000000 ) ) ;
#277 = DIRECTION ( 'NONE',  ( -3.491481338843133355E-15, 1.224646799147343593E-16, -1.000000000000000000 ) ) ;
#278 = DIRECTION ( 'NONE',  ( 0.000000000000000000, 1.000000000000000000, 0.000000000000000000 ) ) ;
#279 = CARTESIAN_POINT ( 'NONE',  ( 5.261506006556806768E-14, -2.950000000000001954, 15.00000000000000000 ) ) ;
#280 = AXIS2_PLACEMENT_3D ( 'NONE', #176, #37, #13 ) ;
#281 = DIRECTION ( 'NONE',  ( -3.491481338843133355E-15, 1.224646799147353207E-16, -1.000000000000000000 ) ) ;
#282 = EDGE_LOOP ( 'NONE', ( #301, #105, #126, #20 ) ) ;
#283 = ADVANCED_FACE ( 'NONE', ( #289 ), #42, .F. ) ;
#284 = PRESENTATION_STYLE_ASSIGNMENT (( #200 ) ) ;
#285 = ORIENTED_EDGE ( 'NONE', *, *, #260, .T. ) ;
#286 = MECHANICAL_DESIGN_GEOMETRIC_PRESENTATION_REPRESENTATION (  '', ( #40 ), #198 ) ;
#287 = EDGE_CURVE ( 'NONE', #182, #34, #342, .T. ) ;
#288 = CARTESIAN_POINT ( 'NONE',  ( 0.000000000000000000, 0.000000000000000000, 0.000000000000000000 ) ) ;
#289 = FACE_OUTER_BOUND ( 'NONE', #76, .T. ) ;
#290 = MECHANICAL_DESIGN_GEOMETRIC_PRESENTATION_REPRESENTATION (  '', ( #6 ), #214 ) ;
#291 = AXIS2_PLACEMENT_3D ( 'NONE', #288, #98, #44 ) ;
#292 = EDGE_LOOP ( 'NONE', ( #267, #116 ) ) ;
#293 = MANIFOLD_SOLID_BREP ( 'Corps-Déplacer/Copier1[2]', #165 ) ;
#294 = ORIENTED_EDGE ( 'NONE', *, *, #10, .F. ) ;
#295 = SURFACE_SIDE_STYLE ('',( #51 ) ) ;
#296 = CARTESIAN_POINT ( 'NONE',  ( 9.620620753268164090E-32, 2.950000000000000178, 2.755455298081546935E-17 ) ) ;
#297 =( NAMED_UNIT ( * ) PLANE_ANGLE_UNIT ( ) SI_UNIT ( $, .RADIAN. ) );
#298 = DIRECTION ( 'NONE',  ( 0.000000000000000000, -1.000000000000000000, 0.000000000000000000 ) ) ;
#299 = AXIS2_PLACEMENT_3D ( 'NONE', #247, #332, #92 ) ;
#300 = PRESENTATION_STYLE_ASSIGNMENT (( #169 ) ) ;
#301 = ORIENTED_EDGE ( 'NONE', *, *, #123, .F. ) ;
#302 = CYLINDRICAL_SURFACE ( 'NONE', #249, 2.949999999999999289 ) ;
#303 = VERTEX_POINT ( 'NONE', #32 ) ;
#304 = VECTOR ( 'NONE', #79, 1000.000000000000000 ) ;
#305 =( NAMED_UNIT ( * ) SI_UNIT ( $, .STERADIAN. ) SOLID_ANGLE_UNIT ( ) );
#306 = SHAPE_DEFINITION_REPRESENTATION ( #47, #30 ) ;
#307 = CARTESIAN_POINT ( 'NONE',  ( 0.000000000000000000, 0.000000000000000000, 0.000000000000000000 ) ) ;
#308 = VECTOR ( 'NONE', #258, 1000.000000000000000 ) ;
#309 = DIRECTION ( 'NONE',  ( 0.000000000000000000, 1.000000000000000000, 0.000000000000000000 ) ) ;
#310 = ORIENTED_EDGE ( 'NONE', *, *, #1, .T. ) ;
#311 = FACE_OUTER_BOUND ( 'NONE', #65, .T. ) ;
#312 = DIRECTION ( 'NONE',  ( 3.491481338843133355E-15, -0.000000000000000000, 1.000000000000000000 ) ) ;
#313 = CLOSED_SHELL ( 'NONE', ( #99, #231, #319, #95, #132, #77, #38, #137 ) ) ;
#314 = AXIS2_PLACEMENT_3D ( 'NONE', #85, #3, #298 ) ;
#315 = DIRECTION ( 'NONE',  ( 3.491481338843133355E-15, -1.224646799147353207E-16, 1.000000000000000000 ) ) ;
#316 = CARTESIAN_POINT ( 'NONE',  ( 0.000000000000000000, 0.000000000000000000, 0.000000000000000000 ) ) ;
#317 = DIRECTION ( 'NONE',  ( -2.468850131082283487E-15, 0.7071067811865424657, -0.7071067811865526798 ) ) ;
#318 = ORIENTED_EDGE ( 'NONE', *, *, #160, .T. ) ;
#319 = ADVANCED_FACE ( 'NONE', ( #232 ), #96, .T. ) ;
#320 = SURFACE_SIDE_STYLE ('',( #5 ) ) ;
#321 = ORIENTED_EDGE ( 'NONE', *, *, #91, .F. ) ;
#322 = FACE_OUTER_BOUND ( 'NONE', #292, .T. ) ;
#323 = UNCERTAINTY_MEASURE_WITH_UNIT (LENGTH_MEASURE( 1.000000000000000082E-05 ), #244, 'distance_accuracy_value', 'NONE');
#324 = FACE_OUTER_BOUND ( 'NONE', #339, .T. ) ;
#325 = EDGE_CURVE ( 'NONE', #256, #71, #156, .T. ) ;
#326 = FILL_AREA_STYLE ('',( #161 ) ) ;
#327 = DIRECTION ( 'NONE',  ( 4.275831445896958607E-31, 1.000000000000000000, 1.224646799147353207E-16 ) ) ;
#328 = CONICAL_SURFACE ( 'NONE', #180, 2.950000000000000178, 0.3450620389298139079 ) ;
#329 = CARTESIAN_POINT ( 'NONE',  ( 5.285790004848913502E-14, -1.854005558726008114E-15, 15.13910427085457755 ) ) ;
#330 = DIRECTION ( 'NONE',  ( 3.491481338843133355E-15, -0.000000000000000000, 1.000000000000000000 ) ) ;
#331 = VECTOR ( 'NONE', #29, 999.9999999999998863 ) ;
#332 = DIRECTION ( 'NONE',  ( 3.491481338843133355E-15, -0.000000000000000000, 1.000000000000000000 ) ) ;
#333 = FACE_OUTER_BOUND ( 'NONE', #59, .T. ) ;
#334 = EDGE_CURVE ( 'NONE', #94, #256, #19, .T. ) ;
#335 = ORIENTED_EDGE ( 'NONE', *, *, #219, .F. ) ;
#336 = PRESENTATION_LAYER_ASSIGNMENT (  '', '', ( #40 ) ) ;
#337 = EDGE_LOOP ( 'NONE', ( #236, #226, #321, #140 ) ) ;
#338 = CARTESIAN_POINT ( 'NONE',  ( 1.248887237796209281E-13, 2.999999999999989786, 56.39999999999998437 ) ) ;
#339 = EDGE_LOOP ( 'NONE', ( #252, #117, #141, #52 ) ) ;
#340 = PRODUCT_DEFINITION ( 'UNKNOWN', '', #101, #54 ) ;
#341 = AXIS2_PLACEMENT_3D ( 'NONE', #230, #183, #254 ) ;
#342 = LINE ( 'NONE', #104, #308 ) ;
#343 = ORIENTED_EDGE ( 'NONE', *, *, #45, .F. ) ;
ENDSEC;
END-ISO-10303-21;
