ISO-10303-21;
HEADER;
FILE_DESCRIPTION (( 'STEP AP214' ),
    '1' );
FILE_NAME ('42579.step',
    '2024-04-04T09:33:00',
    ( '' ),
    ( '' ),
    'SwSTEP 2.0',
    'SolidWorks 2022',
    '' );
FILE_SCHEMA (( 'AUTOMOTIVE_DESIGN' ));
ENDSEC;

DATA;
#1 = ORIENTED_EDGE ( 'NONE', *, *, #13, .T. ) ;
#2 = DIRECTION ( 'NONE',  ( 3.491481338843133355E-15, -1.224646799147353207E-16, 1.000000000000000000 ) ) ;
#3 = DIRECTION ( 'NONE',  ( 0.000000000000000000, 1.000000000000000000, 0.000000000000000000 ) ) ;
#4 = DIRECTION ( 'NONE',  ( 4.275831445896958607E-31, 1.000000000000000000, 1.224646799147353207E-16 ) ) ;
#5 = VECTOR ( 'NONE', #29, 1000.000000000000000 ) ;
#6 = PRODUCT_DEFINITION_CONTEXT ( 'detailed design', #210, 'design' ) ;
#7 = ADVANCED_FACE ( 'NONE', ( #41 ), #73, .T. ) ;
#8 = CARTESIAN_POINT ( 'NONE',  ( 4.364351673553916694E-14, -1.530808498934191521E-15, 12.50000000000000000 ) ) ;
#9 = ORIENTED_EDGE ( 'NONE', *, *, #236, .T. ) ;
#10 = DIRECTION ( 'NONE',  ( 3.491481338843133355E-15, -0.000000000000000000, 1.000000000000000000 ) ) ;
#11 = CARTESIAN_POINT ( 'NONE',  ( 4.364351673553916694E-14, -1.530808498934191521E-15, 12.50000000000000000 ) ) ;
#12 = SURFACE_SIDE_STYLE ('',( #72 ) ) ;
#13 = EDGE_CURVE ( 'NONE', #168, #82, #116, .T. ) ;
#14 = LINE ( 'NONE', #205, #79 ) ;
#15 = DIRECTION ( 'NONE',  ( 0.000000000000000000, 1.000000000000000000, 0.000000000000000000 ) ) ;
#16 = DIRECTION ( 'NONE',  ( -2.486899575160350966E-14, -1.000000000000000000, 0.000000000000000000 ) ) ;
#17 = CARTESIAN_POINT ( 'NONE',  ( 4.364351673553916694E-14, 2.499999999999998224, 12.50000000000000000 ) ) ;
#18 = AXIS2_PLACEMENT_3D ( 'NONE', #8, #297, #273 ) ;
#19 = LINE ( 'NONE', #63, #207 ) ;
#20 = DIRECTION ( 'NONE',  ( 1.000000000000000000, 0.000000000000000000, -3.469446951953615372E-15 ) ) ;
#21 = EDGE_CURVE ( 'NONE', #111, #313, #226, .T. ) ;
#22 = DIRECTION ( 'NONE',  ( 1.000000000000000000, 0.000000000000000000, -3.491481338843133355E-15 ) ) ;
#23 = EDGE_CURVE ( 'NONE', #285, #97, #19, .T. ) ;
#24 = CIRCLE ( 'NONE', #290, 2.399999999999991473 ) ;
#25 = ADVANCED_FACE ( 'NONE', ( #91 ), #182, .T. ) ;
#26 = AXIS2_PLACEMENT_3D ( 'NONE', #283, #253, #235 ) ;
#27 = FACE_OUTER_BOUND ( 'NONE', #136, .T. ) ;
#28 = VERTEX_POINT ( 'NONE', #249 ) ;
#29 = DIRECTION ( 'NONE',  ( 3.491481338843133355E-15, -0.000000000000000000, 1.000000000000000000 ) ) ;
#30 = VERTEX_POINT ( 'NONE', #174 ) ;
#31 = FILL_AREA_STYLE_COLOUR ( '', #270 ) ;
#32 = ORIENTED_EDGE ( 'NONE', *, *, #265, .T. ) ;
#33 =( NAMED_UNIT ( * ) SI_UNIT ( $, .STERADIAN. ) SOLID_ANGLE_UNIT ( ) );
#34 = AXIS2_PLACEMENT_3D ( 'NONE', #247, #45, #37 ) ;
#35 = CARTESIAN_POINT ( 'NONE',  ( 1.990144363140586139E-13, -6.980486755139912911E-15, 57.00000000000000000 ) ) ;
#36 = ORIENTED_EDGE ( 'NONE', *, *, #185, .F. ) ;
#37 = DIRECTION ( 'NONE',  ( 0.000000000000000000, 1.000000000000000000, 0.000000000000000000 ) ) ;
#38 = CARTESIAN_POINT ( 'NONE',  ( 1.969195475107526960E-13, -6.907007947191071191E-15, 56.39999999999999147 ) ) ;
#39 = FACE_OUTER_BOUND ( 'NONE', #190, .T. ) ;
#40 =( GEOMETRIC_REPRESENTATION_CONTEXT ( 3 ) GLOBAL_UNCERTAINTY_ASSIGNED_CONTEXT ( ( #163 ) ) GLOBAL_UNIT_ASSIGNED_CONTEXT ( ( #50, #124, #181 ) ) REPRESENTATION_CONTEXT ( 'NONE', 'WORKASPACE' ) );
#41 = FACE_OUTER_BOUND ( 'NONE', #144, .T. ) ;
#42 = EDGE_LOOP ( 'NONE', ( #32, #244, #36, #138 ) ) ;
#43 = CARTESIAN_POINT ( 'NONE',  ( 4.607191656475006130E-14, -2.500000000000001776, 12.50000000000000000 ) ) ;
#44 = ORIENTED_EDGE ( 'NONE', *, *, #213, .F. ) ;
#45 = DIRECTION ( 'NONE',  ( -3.491481338843133355E-15, 1.224646799147353207E-16, -1.000000000000000000 ) ) ;
#46 = CARTESIAN_POINT ( 'NONE',  ( 4.850031639396096197E-14, 2.999999999999993339, 13.89104270854589274 ) ) ;
#47 =( NAMED_UNIT ( * ) PLANE_ANGLE_UNIT ( ) SI_UNIT ( $, .RADIAN. ) );
#48 = DIRECTION ( 'NONE',  ( 0.000000000000000000, 0.000000000000000000, 1.000000000000000000 ) ) ;
#49 = PRODUCT_DEFINITION ( 'UNKNOWN', '', #271, #6 ) ;
#50 =( LENGTH_UNIT ( ) NAMED_UNIT ( * ) SI_UNIT ( .MILLI., .METRE. ) );
#51 = CLOSED_SHELL ( 'NONE', ( #294, #274, #96, #7, #278, #248, #25, #161 ) ) ;
#52 = APPLICATION_PROTOCOL_DEFINITION ( 'draft international standard', 'automotive_design', 1998, #130 ) ;
#53 = EDGE_CURVE ( 'NONE', #30, #111, #282, .T. ) ;
#54 = DIRECTION ( 'NONE',  ( -3.491481338843133355E-15, 1.224646799147353207E-16, -1.000000000000000000 ) ) ;
#55 = AXIS2_PLACEMENT_3D ( 'NONE', #318, #341, #178 ) ;
#56 = CARTESIAN_POINT ( 'NONE',  ( 0.000000000000000000, 0.000000000000000000, 0.000000000000000000 ) ) ;
#57 = SURFACE_SIDE_STYLE ('',( #157 ) ) ;
#58 = EDGE_CURVE ( 'NONE', #313, #111, #343, .T. ) ;
#59 =( LENGTH_UNIT ( ) NAMED_UNIT ( * ) SI_UNIT ( .MILLI., .METRE. ) );
#60 = ORIENTED_EDGE ( 'NONE', *, *, #152, .T. ) ;
#61 = FACE_OUTER_BOUND ( 'NONE', #237, .T. ) ;
#62 =( GEOMETRIC_REPRESENTATION_CONTEXT ( 3 ) GLOBAL_UNCERTAINTY_ASSIGNED_CONTEXT ( ( #171 ) ) GLOBAL_UNIT_ASSIGNED_CONTEXT ( ( #308, #259, #231 ) ) REPRESENTATION_CONTEXT ( 'NONE', 'WORKASPACE' ) );
#63 = CARTESIAN_POINT ( 'NONE',  ( 4.364351673553916694E-14, -2.500000000000001776, 12.50000000000000000 ) ) ;
#64 = FACE_OUTER_BOUND ( 'NONE', #113, .T. ) ;
#65 = DIRECTION ( 'NONE',  ( -2.382254525458727725E-15, -0.7071067811865443531, -0.7071067811865506814 ) ) ;
#66 = DIRECTION ( 'NONE',  ( 3.491481338843133355E-15, -0.000000000000000000, 1.000000000000000000 ) ) ;
#67 = EDGE_LOOP ( 'NONE', ( #121, #230, #303, #222 ) ) ;
#68 = CYLINDRICAL_SURFACE ( 'NONE', #120, 2.499999999999999112 ) ;
#69 = AXIS2_PLACEMENT_3D ( 'NONE', #122, #306, #15 ) ;
#70 = AXIS2_PLACEMENT_3D ( 'NONE', #101, #48, #339 ) ;
#71 = DIRECTION ( 'NONE',  ( -3.491481338843133355E-15, 1.224646799147353207E-16, -1.000000000000000000 ) ) ;
#72 = SURFACE_STYLE_FILL_AREA ( #74 ) ;
#73 = PLANE ( 'NONE',  #133 ) ;
#74 = FILL_AREA_STYLE ('',( #199 ) ) ;
#75 = PLANE ( 'NONE',  #241 ) ;
#76 = PRESENTATION_LAYER_ASSIGNMENT (  '', '', ( #262 ) ) ;
#77 = SHAPE_DEFINITION_REPRESENTATION ( #155, #214 ) ;
#78 = CIRCLE ( 'NONE', #26, 2.500000000000000000 ) ;
#79 = VECTOR ( 'NONE', #291, 1000.000000000000000 ) ;
#80 = EDGE_CURVE ( 'NONE', #111, #97, #14, .T. ) ;
#81 = CARTESIAN_POINT ( 'NONE',  ( 1.969195475107526960E-13, -6.907007947191071191E-15, 56.39999999999999147 ) ) ;
#82 = VERTEX_POINT ( 'NONE', #46 ) ;
#83 = DIRECTION ( 'NONE',  ( 1.000000000000000000, 0.000000000000000000, -3.491481338843133355E-15 ) ) ;
#84 = VECTOR ( 'NONE', #314, 1000.000000000000114 ) ;
#85 = DIRECTION ( 'NONE',  ( -3.491481338843133355E-15, 1.224646799147353207E-16, -1.000000000000000000 ) ) ;
#86 = CARTESIAN_POINT ( 'NONE',  ( 1.990144363140586139E-13, -6.980486755139912911E-15, 57.00000000000000000 ) ) ;
#87 = ORIENTED_EDGE ( 'NONE', *, *, #236, .F. ) ;
#88 = DIRECTION ( 'NONE',  ( 4.275831445896958607E-31, 1.000000000000000000, 1.224646799147353207E-16 ) ) ;
#89 = ADVANCED_FACE ( 'NONE', ( #316 ), #75, .F. ) ;
#90 = CARTESIAN_POINT ( 'NONE',  ( 4.364351673553916694E-14, -1.530808498934191521E-15, 12.50000000000000000 ) ) ;
#91 = FACE_OUTER_BOUND ( 'NONE', #131, .T. ) ;
#92 = FACE_OUTER_BOUND ( 'NONE', #307, .T. ) ;
#93 = ORIENTED_EDGE ( 'NONE', *, *, #321, .F. ) ;
#94 = LINE ( 'NONE', #137, #84 ) ;
#95 = VERTEX_POINT ( 'NONE', #99 ) ;
#96 = ADVANCED_FACE ( 'NONE', ( #263 ), #238, .T. ) ;
#97 = VERTEX_POINT ( 'NONE', #276 ) ;
#98 = CARTESIAN_POINT ( 'NONE',  ( 4.364351673553916694E-14, 0.000000000000000000, 12.50000000000000000 ) ) ;
#99 = CARTESIAN_POINT ( 'NONE',  ( -2.499999999999954703, 3.061616997868381662E-16, 12.50000000000000888 ) ) ;
#100 = EDGE_CURVE ( 'NONE', #301, #95, #132, .T. ) ;
#101 = CARTESIAN_POINT ( 'NONE',  ( 0.000000000000000000, 0.000000000000000000, 0.000000000000000000 ) ) ;
#102 = CIRCLE ( 'NONE', #327, 2.499999999999998224 ) ;
#103 = CLOSED_SHELL ( 'NONE', ( #315, #296, #340, #89 ) ) ;
#104 = CIRCLE ( 'NONE', #69, 2.999999999999994671 ) ;
#105 = CARTESIAN_POINT ( 'NONE',  ( 2.500000000000043077, 0.000000000000000000, 12.49999999999999289 ) ) ;
#106 = CARTESIAN_POINT ( 'NONE',  ( 4.640869443451558296E-14, 2.499999999999998224, 12.50000000000000000 ) ) ;
#107 = COLOUR_RGB ( '',0.8980392156862745390, 0.9176470588235293713, 0.9294117647058823817 ) ;
#108 = ORIENTED_EDGE ( 'NONE', *, *, #265, .F. ) ;
#109 = DIRECTION ( 'NONE',  ( 3.491481338843133355E-15, -0.000000000000000000, 1.000000000000000000 ) ) ;
#110 = CYLINDRICAL_SURFACE ( 'NONE', #298, 2.999999999999996447 ) ;
#111 = VERTEX_POINT ( 'NONE', #326 ) ;
#112 = SURFACE_STYLE_USAGE ( .BOTH. , #57 ) ;
#113 = EDGE_LOOP ( 'NONE', ( #252, #1, #268, #200 ) ) ;
#114 = DIRECTION ( 'NONE',  ( 3.491481338843133355E-15, -1.224646799147353207E-16, 1.000000000000000000 ) ) ;
#115 = UNCERTAINTY_MEASURE_WITH_UNIT (LENGTH_MEASURE( 1.000000000000000082E-05 ), #59, 'distance_accuracy_value', 'NONE');
#116 = LINE ( 'NONE', #305, #177 ) ;
#117 = CYLINDRICAL_SURFACE ( 'NONE', #266, 2.499999999999999112 ) ;
#118 = ORIENTED_EDGE ( 'NONE', *, *, #80, .F. ) ;
#119 = DIRECTION ( 'NONE',  ( 3.327098416510788004E-15, 0.3382550599108818390, 0.9410544694355825746 ) ) ;
#120 = AXIS2_PLACEMENT_3D ( 'NONE', #98, #312, #197 ) ;
#121 = ORIENTED_EDGE ( 'NONE', *, *, #58, .T. ) ;
#122 = CARTESIAN_POINT ( 'NONE',  ( 4.850031639396096197E-14, -1.701162098983990772E-15, 13.89104270854589274 ) ) ;
#123 = CARTESIAN_POINT ( 'NONE',  ( 0.000000000000000000, 0.000000000000000000, 0.000000000000000000 ) ) ;
#124 =( NAMED_UNIT ( * ) PLANE_ANGLE_UNIT ( ) SI_UNIT ( $, .RADIAN. ) );
#125 =( LENGTH_UNIT ( ) NAMED_UNIT ( * ) SI_UNIT ( .MILLI., .METRE. ) );
#126 = AXIS2_PLACEMENT_3D ( 'NONE', #38, #289, #145 ) ;
#127 = CIRCLE ( 'NONE', #151, 2.399999999999991473 ) ;
#128 = EDGE_CURVE ( 'NONE', #30, #28, #127, .T. ) ;
#129 = DIRECTION ( 'NONE',  ( -3.491481338843133750E-15, 1.224646799147345072E-16, -1.000000000000000000 ) ) ;
#130 = APPLICATION_CONTEXT ( 'automotive_design' ) ;
#131 = EDGE_LOOP ( 'NONE', ( #311, #87, #227, #281 ) ) ;
#132 = LINE ( 'NONE', #159, #5 ) ;
#133 = AXIS2_PLACEMENT_3D ( 'NONE', #17, #71, #143 ) ;
#134 = STYLED_ITEM ( 'NONE', ( #286 ), #332 ) ;
#135 = CARTESIAN_POINT ( 'NONE',  ( 4.364351673553916694E-14, 0.000000000000000000, 12.50000000000000000 ) ) ;
#136 = EDGE_LOOP ( 'NONE', ( #156, #272, #330, #242 ) ) ;
#137 = CARTESIAN_POINT ( 'NONE',  ( 1.969195475107526960E-13, 2.999999999999989786, 56.39999999999999147 ) ) ;
#138 = ORIENTED_EDGE ( 'NONE', *, *, #195, .F. ) ;
#139 = AXIS2_PLACEMENT_3D ( 'NONE', #288, #175, #250 ) ;
#140 = FACE_OUTER_BOUND ( 'NONE', #42, .T. ) ;
#141 = COLOUR_RGB ( '',0.8980392156862745390, 0.9176470588235293713, 0.9294117647058823817 ) ;
#142 = EDGE_CURVE ( 'NONE', #168, #285, #335, .T. ) ;
#143 = DIRECTION ( 'NONE',  ( 4.275831445896958607E-31, 1.000000000000000000, 1.224646799147353207E-16 ) ) ;
#144 = EDGE_LOOP ( 'NONE', ( #9, #221 ) ) ;
#145 = DIRECTION ( 'NONE',  ( 2.575717417130361912E-14, -1.000000000000000000, 0.000000000000000000 ) ) ;
#146 = EDGE_CURVE ( 'NONE', #313, #82, #280, .T. ) ;
#147 = CARTESIAN_POINT ( 'NONE',  ( -2.499999999999999556, 3.061616997868409765E-16, 8.728703347107833388E-15 ) ) ;
#148 = STYLED_ITEM ( 'NONE', ( #154 ), #216 ) ;
#149 = DIRECTION ( 'NONE',  ( 3.491481338843133355E-15, -0.000000000000000000, 1.000000000000000000 ) ) ;
#150 = SURFACE_SIDE_STYLE ('',( #206 ) ) ;
#151 = AXIS2_PLACEMENT_3D ( 'NONE', #86, #191, #160 ) ;
#152 = EDGE_CURVE ( 'NONE', #28, #30, #24, .T. ) ;
#153 = PRODUCT_CONTEXT ( 'NONE', #130, 'mechanical' ) ;
#154 = PRESENTATION_STYLE_ASSIGNMENT (( #112 ) ) ;
#155 = PRODUCT_DEFINITION_SHAPE ( 'NONE', 'NONE',  #49 ) ;
#156 = ORIENTED_EDGE ( 'NONE', *, *, #53, .F. ) ;
#157 = SURFACE_STYLE_FILL_AREA ( #269 ) ;
#158 = ORIENTED_EDGE ( 'NONE', *, *, #21, .T. ) ;
#159 = CARTESIAN_POINT ( 'NONE',  ( -2.499999999999955591, 3.061616997868382155E-16, 12.50000000000000888 ) ) ;
#160 = DIRECTION ( 'NONE',  ( 0.000000000000000000, -1.000000000000000000, 0.000000000000000000 ) ) ;
#161 = ADVANCED_FACE ( 'NONE', ( #27 ), #219, .T. ) ;
#162 = AXIS2_PLACEMENT_3D ( 'NONE', #56, #10, #83 ) ;
#163 = UNCERTAINTY_MEASURE_WITH_UNIT (LENGTH_MEASURE( 1.000000000000000082E-05 ), #50, 'distance_accuracy_value', 'NONE');
#164 = ORIENTED_EDGE ( 'NONE', *, *, #146, .T. ) ;
#165 = LINE ( 'NONE', #105, #260 ) ;
#166 = CARTESIAN_POINT ( 'NONE',  ( 1.969195475107526960E-13, -6.907007947191071191E-15, 56.39999999999999147 ) ) ;
#167 = CARTESIAN_POINT ( 'NONE',  ( 1.227099319523568164E-13, 2.999999999999989786, 56.39999999999999147 ) ) ;
#168 = VERTEX_POINT ( 'NONE', #106 ) ;
#169 = ORIENTED_EDGE ( 'NONE', *, *, #53, .T. ) ;
#170 = CONICAL_SURFACE ( 'NONE', #277, 2.500000000000000000, 0.3450620389298190704 ) ;
#171 = UNCERTAINTY_MEASURE_WITH_UNIT (LENGTH_MEASURE( 1.000000000000000082E-05 ), #308, 'distance_accuracy_value', 'NONE');
#172 = DIRECTION ( 'NONE',  ( 3.285674118869261816E-15, -0.3382550599108820610, 0.9410544694355824635 ) ) ;
#173 = PLANE ( 'NONE',  #55 ) ;
#174 = CARTESIAN_POINT ( 'NONE',  ( 1.982976465481754348E-13, -2.399999999999998579, 57.00000000000000000 ) ) ;
#175 = DIRECTION ( 'NONE',  ( 3.491481338843133355E-15, -1.224646799147353207E-16, 1.000000000000000000 ) ) ;
#176 = CARTESIAN_POINT ( 'NONE',  ( 1.068957861474239652E-31, 2.500000000000000000, 3.061616997868383634E-17 ) ) ;
#177 = VECTOR ( 'NONE', #119, 1000.000000000000114 ) ;
#178 = DIRECTION ( 'NONE',  ( -1.000000000000000000, 0.000000000000000000, 3.491481338843133355E-15 ) ) ;
#179 = CIRCLE ( 'NONE', #18, 2.500000000000000000 ) ;
#180 = EDGE_CURVE ( 'NONE', #301, #198, #251, .T. ) ;
#181 =( NAMED_UNIT ( * ) SI_UNIT ( $, .STERADIAN. ) SOLID_ANGLE_UNIT ( ) );
#182 = CONICAL_SURFACE ( 'NONE', #284, 2.500000000000000000, 0.3450620389298190704 ) ;
#183 = VECTOR ( 'NONE', #65, 1000.000000000000114 ) ;
#184 = AXIS2_PLACEMENT_3D ( 'NONE', #81, #129, #3 ) ;
#185 = EDGE_CURVE ( 'NONE', #328, #95, #192, .T. ) ;
#186 = DIRECTION ( 'NONE',  ( -3.491481338843133355E-15, 1.224646799147353207E-16, -1.000000000000000000 ) ) ;
#187 = AXIS2_PLACEMENT_3D ( 'NONE', #204, #329, #337 ) ;
#188 = DIRECTION ( 'NONE',  ( 3.491481338843133355E-15, -0.000000000000000000, 1.000000000000000000 ) ) ;
#189 = DIRECTION ( 'NONE',  ( 3.491481338843133355E-15, -0.000000000000000000, 1.000000000000000000 ) ) ;
#190 = EDGE_LOOP ( 'NONE', ( #60, #258 ) ) ;
#191 = DIRECTION ( 'NONE',  ( 3.491481338843133355E-15, -1.224646799147353207E-16, 1.000000000000000000 ) ) ;
#192 = CIRCLE ( 'NONE', #324, 2.499999999999998224 ) ;
#193 = ORIENTED_EDGE ( 'NONE', *, *, #180, .F. ) ;
#194 = CARTESIAN_POINT ( 'NONE',  ( 4.364351673553916694E-14, 0.000000000000000000, 12.50000000000000000 ) ) ;
#195 = EDGE_CURVE ( 'NONE', #198, #328, #165, .T. ) ;
#196 = ORIENTED_EDGE ( 'NONE', *, *, #195, .T. ) ;
#197 = DIRECTION ( 'NONE',  ( 1.000000000000000000, 0.000000000000000000, -3.469446951953615372E-15 ) ) ;
#198 = VERTEX_POINT ( 'NONE', #299 ) ;
#199 = FILL_AREA_STYLE_COLOUR ( '', #107 ) ;
#200 = ORIENTED_EDGE ( 'NONE', *, *, #23, .F. ) ;
#201 =( GEOMETRIC_REPRESENTATION_CONTEXT ( 3 ) GLOBAL_UNCERTAINTY_ASSIGNED_CONTEXT ( ( #115 ) ) GLOBAL_UNIT_ASSIGNED_CONTEXT ( ( #59, #300, #33 ) ) REPRESENTATION_CONTEXT ( 'NONE', 'WORKASPACE' ) );
#202 = DIRECTION ( 'NONE',  ( 0.000000000000000000, -1.000000000000000000, 0.000000000000000000 ) ) ;
#203 = ORIENTED_EDGE ( 'NONE', *, *, #100, .F. ) ;
#204 = CARTESIAN_POINT ( 'NONE',  ( 1.969195475107526960E-13, -6.907007947191071191E-15, 56.39999999999999147 ) ) ;
#205 = CARTESIAN_POINT ( 'NONE',  ( 3.673940397442042612E-16, -2.999999999999996447, -3.673940397442067757E-16 ) ) ;
#206 = SURFACE_STYLE_FILL_AREA ( #292 ) ;
#207 = VECTOR ( 'NONE', #172, 1000.000000000000000 ) ;
#208 = APPLICATION_PROTOCOL_DEFINITION ( 'draft international standard', 'automotive_design', 1998, #210 ) ;
#209 = VECTOR ( 'NONE', #186, 1000.000000000000000 ) ;
#210 = APPLICATION_CONTEXT ( 'automotive_design' ) ;
#211 = FILL_AREA_STYLE_COLOUR ( '', #141 ) ;
#212 = AXIS2_PLACEMENT_3D ( 'NONE', #123, #322, #4 ) ;
#213 = EDGE_CURVE ( 'NONE', #95, #328, #102, .T. ) ;
#214 = ADVANCED_BREP_SHAPE_REPRESENTATION ( '42579', ( #216, #332, #70 ), #320 ) ;
#215 = PRODUCT ( '42579', '42579', '', ( #153 ) ) ;
#216 = MANIFOLD_SOLID_BREP ( 'Corps-Déplacer/Copier1[1]', #51 ) ;
#217 = ORIENTED_EDGE ( 'NONE', *, *, #58, .F. ) ;
#218 = CARTESIAN_POINT ( 'NONE',  ( 1.282749433769086181E-30, 2.999999999999996447, 3.673940397442055431E-16 ) ) ;
#219 = CONICAL_SURFACE ( 'NONE', #184, 2.999999999999996447, 0.7853981633974439491 ) ;
#220 = MECHANICAL_DESIGN_GEOMETRIC_PRESENTATION_REPRESENTATION (  '', ( #262 ), #40 ) ;
#221 = ORIENTED_EDGE ( 'NONE', *, *, #142, .T. ) ;
#222 = ORIENTED_EDGE ( 'NONE', *, *, #146, .F. ) ;
#223 = CARTESIAN_POINT ( 'NONE',  ( 0.000000000000000000, 0.000000000000000000, 0.000000000000000000 ) ) ;
#224 = ORIENTED_EDGE ( 'NONE', *, *, #180, .T. ) ;
#225 = DIRECTION ( 'NONE',  ( 0.000000000000000000, -1.000000000000000000, 0.000000000000000000 ) ) ;
#226 = CIRCLE ( 'NONE', #334, 2.999999999999996447 ) ;
#227 = ORIENTED_EDGE ( 'NONE', *, *, #23, .T. ) ;
#228 = PLANE ( 'NONE',  #139 ) ;
#229 = EDGE_LOOP ( 'NONE', ( #325, #169, #217, #93 ) ) ;
#230 = ORIENTED_EDGE ( 'NONE', *, *, #80, .T. ) ;
#231 =( NAMED_UNIT ( * ) SI_UNIT ( $, .STERADIAN. ) SOLID_ANGLE_UNIT ( ) );
#232 = AXIS2_PLACEMENT_3D ( 'NONE', #245, #85, #243 ) ;
#233 = ORIENTED_EDGE ( 'NONE', *, *, #185, .T. ) ;
#234 = MECHANICAL_DESIGN_GEOMETRIC_PRESENTATION_REPRESENTATION (  '', ( #148 ), #201 ) ;
#235 = DIRECTION ( 'NONE',  ( 1.000000000000000000, 0.000000000000000000, -3.491481338843133355E-15 ) ) ;
#236 = EDGE_CURVE ( 'NONE', #285, #168, #179, .T. ) ;
#237 = EDGE_LOOP ( 'NONE', ( #118, #158, #164, #333 ) ) ;
#238 = CYLINDRICAL_SURFACE ( 'NONE', #212, 2.999999999999996447 ) ;
#239 = PRODUCT_RELATED_PRODUCT_CATEGORY ( 'part', '', ( #215 ) ) ;
#240 = SURFACE_STYLE_USAGE ( .BOTH. , #150 ) ;
#241 = AXIS2_PLACEMENT_3D ( 'NONE', #176, #149, #22 ) ;
#242 = ORIENTED_EDGE ( 'NONE', *, *, #21, .F. ) ;
#243 = DIRECTION ( 'NONE',  ( 0.000000000000000000, 1.000000000000000000, 0.000000000000000000 ) ) ;
#244 = ORIENTED_EDGE ( 'NONE', *, *, #100, .T. ) ;
#245 = CARTESIAN_POINT ( 'NONE',  ( 4.364351673553916694E-14, -1.530808498934191521E-15, 12.50000000000000000 ) ) ;
#246 = CONICAL_SURFACE ( 'NONE', #187, 2.999999999999996447, 0.7853981633974439491 ) ;
#247 = CARTESIAN_POINT ( 'NONE',  ( 4.850031639396096197E-14, -1.701162098983990772E-15, 13.89104270854589274 ) ) ;
#248 = ADVANCED_FACE ( 'NONE', ( #61 ), #110, .T. ) ;
#249 = CARTESIAN_POINT ( 'NONE',  ( 1.979669919124056423E-13, 2.399999999999984812, 57.00000000000000000 ) ) ;
#250 = DIRECTION ( 'NONE',  ( -4.275831445896958607E-31, -1.000000000000000000, -1.224646799147353207E-16 ) ) ;
#251 = CIRCLE ( 'NONE', #162, 2.500000000000000000 ) ;
#252 = ORIENTED_EDGE ( 'NONE', *, *, #142, .F. ) ;
#253 = DIRECTION ( 'NONE',  ( 3.491481338843133355E-15, -0.000000000000000000, 1.000000000000000000 ) ) ;
#254 = DIRECTION ( 'NONE',  ( -3.491481338843133750E-15, 1.224646799147345072E-16, -1.000000000000000000 ) ) ;
#255 = CARTESIAN_POINT ( 'NONE',  ( 2.500000000000042188, 0.000000000000000000, 12.49999999999999289 ) ) ;
#256 = UNCERTAINTY_MEASURE_WITH_UNIT (LENGTH_MEASURE( 1.000000000000000082E-05 ), #125, 'distance_accuracy_value', 'NONE');
#257 = EDGE_CURVE ( 'NONE', #82, #97, #293, .T. ) ;
#258 = ORIENTED_EDGE ( 'NONE', *, *, #128, .T. ) ;
#259 =( NAMED_UNIT ( * ) PLANE_ANGLE_UNIT ( ) SI_UNIT ( $, .RADIAN. ) );
#260 = VECTOR ( 'NONE', #188, 1000.000000000000000 ) ;
#261 = EDGE_LOOP ( 'NONE', ( #108, #193 ) ) ;
#262 = STYLED_ITEM ( 'NONE', ( #264 ), #214 ) ;
#263 = FACE_OUTER_BOUND ( 'NONE', #67, .T. ) ;
#264 = PRESENTATION_STYLE_ASSIGNMENT (( #240 ) ) ;
#265 = EDGE_CURVE ( 'NONE', #198, #301, #78, .T. ) ;
#266 = AXIS2_PLACEMENT_3D ( 'NONE', #194, #66, #20 ) ;
#267 = FACE_OUTER_BOUND ( 'NONE', #279, .T. ) ;
#268 = ORIENTED_EDGE ( 'NONE', *, *, #257, .T. ) ;
#269 = FILL_AREA_STYLE ('',( #31 ) ) ;
#270 = COLOUR_RGB ( '',0.8980392156862745390, 0.9176470588235293713, 0.9294117647058823817 ) ;
#271 = PRODUCT_DEFINITION_FORMATION_WITH_SPECIFIED_SOURCE ( 'ANY', '', #215, .NOT_KNOWN. ) ;
#272 = ORIENTED_EDGE ( 'NONE', *, *, #152, .F. ) ;
#273 = DIRECTION ( 'NONE',  ( 0.000000000000000000, 1.000000000000000000, 0.000000000000000000 ) ) ;
#274 = ADVANCED_FACE ( 'NONE', ( #64 ), #170, .T. ) ;
#275 = ORIENTED_EDGE ( 'NONE', *, *, #213, .T. ) ;
#276 = CARTESIAN_POINT ( 'NONE',  ( 1.230773259921010218E-13, -2.999999999999996447, 13.89104270854589274 ) ) ;
#277 = AXIS2_PLACEMENT_3D ( 'NONE', #90, #114, #202 ) ;
#278 = ADVANCED_FACE ( 'NONE', ( #39 ), #228, .T. ) ;
#279 = EDGE_LOOP ( 'NONE', ( #233, #275 ) ) ;
#280 = LINE ( 'NONE', #218, #209 ) ;
#281 = ORIENTED_EDGE ( 'NONE', *, *, #309, .T. ) ;
#282 = LINE ( 'NONE', #336, #183 ) ;
#283 = CARTESIAN_POINT ( 'NONE',  ( 0.000000000000000000, 0.000000000000000000, 0.000000000000000000 ) ) ;
#284 = AXIS2_PLACEMENT_3D ( 'NONE', #11, #287, #338 ) ;
#285 = VERTEX_POINT ( 'NONE', #43 ) ;
#286 = PRESENTATION_STYLE_ASSIGNMENT (( #304 ) ) ;
#287 = DIRECTION ( 'NONE',  ( 3.491481338843133355E-15, -1.224646799147353207E-16, 1.000000000000000000 ) ) ;
#288 = CARTESIAN_POINT ( 'NONE',  ( 1.990144363140586139E-13, -6.980486755139912911E-15, 57.00000000000000000 ) ) ;
#289 = DIRECTION ( 'NONE',  ( -3.491481338843133750E-15, 1.224646799147345072E-16, -1.000000000000000000 ) ) ;
#290 = AXIS2_PLACEMENT_3D ( 'NONE', #35, #2, #225 ) ;
#291 = DIRECTION ( 'NONE',  ( -3.491481338843133355E-15, 1.224646799147353207E-16, -1.000000000000000000 ) ) ;
#292 = FILL_AREA_STYLE ('',( #211 ) ) ;
#293 = CIRCLE ( 'NONE', #34, 2.999999999999994671 ) ;
#294 = ADVANCED_FACE ( 'NONE', ( #331 ), #246, .T. ) ;
#295 = DIRECTION ( 'NONE',  ( 1.000000000000000000, 0.000000000000000000, -3.469446951953616555E-15 ) ) ;
#296 = ADVANCED_FACE ( 'NONE', ( #92 ), #68, .T. ) ;
#297 = DIRECTION ( 'NONE',  ( -3.491481338843133355E-15, 1.224646799147353207E-16, -1.000000000000000000 ) ) ;
#298 = AXIS2_PLACEMENT_3D ( 'NONE', #223, #54, #88 ) ;
#299 = CARTESIAN_POINT ( 'NONE',  ( 2.500000000000000000, 0.000000000000000000, -8.728703347107833388E-15 ) ) ;
#300 =( NAMED_UNIT ( * ) PLANE_ANGLE_UNIT ( ) SI_UNIT ( $, .RADIAN. ) );
#301 = VERTEX_POINT ( 'NONE', #147 ) ;
#302 = CARTESIAN_POINT ( 'NONE',  ( 4.364351673553916694E-14, 0.000000000000000000, 12.50000000000000000 ) ) ;
#303 = ORIENTED_EDGE ( 'NONE', *, *, #257, .F. ) ;
#304 = SURFACE_STYLE_USAGE ( .BOTH. , #12 ) ;
#305 = CARTESIAN_POINT ( 'NONE',  ( 4.394967843532600481E-14, 2.499999999999998224, 12.50000000000000000 ) ) ;
#306 = DIRECTION ( 'NONE',  ( -3.491481338843133355E-15, 1.224646799147353207E-16, -1.000000000000000000 ) ) ;
#307 = EDGE_LOOP ( 'NONE', ( #203, #224, #196, #44 ) ) ;
#308 =( LENGTH_UNIT ( ) NAMED_UNIT ( * ) SI_UNIT ( .MILLI., .METRE. ) );
#309 = EDGE_CURVE ( 'NONE', #97, #82, #104, .T. ) ;
#310 = MECHANICAL_DESIGN_GEOMETRIC_PRESENTATION_REPRESENTATION (  '', ( #134 ), #62 ) ;
#311 = ORIENTED_EDGE ( 'NONE', *, *, #13, .F. ) ;
#312 = DIRECTION ( 'NONE',  ( 3.491481338843133355E-15, -0.000000000000000000, 1.000000000000000000 ) ) ;
#313 = VERTEX_POINT ( 'NONE', #167 ) ;
#314 = DIRECTION ( 'NONE',  ( -2.468850131082275599E-15, 0.7071067811865445751, -0.7071067811865504593 ) ) ;
#315 = ADVANCED_FACE ( 'NONE', ( #140 ), #117, .T. ) ;
#316 = FACE_OUTER_BOUND ( 'NONE', #261, .T. ) ;
#317 = PRESENTATION_LAYER_ASSIGNMENT (  '', '', ( #148 ) ) ;
#318 = CARTESIAN_POINT ( 'NONE',  ( 4.364351673553916694E-14, 2.499999999999998224, 12.50000000000000000 ) ) ;
#319 = PRESENTATION_LAYER_ASSIGNMENT (  '', '', ( #134 ) ) ;
#320 =( GEOMETRIC_REPRESENTATION_CONTEXT ( 3 ) GLOBAL_UNCERTAINTY_ASSIGNED_CONTEXT ( ( #256 ) ) GLOBAL_UNIT_ASSIGNED_CONTEXT ( ( #125, #47, #342 ) ) REPRESENTATION_CONTEXT ( 'NONE', 'WORKASPACE' ) );
#321 = EDGE_CURVE ( 'NONE', #28, #313, #94, .T. ) ;
#322 = DIRECTION ( 'NONE',  ( -3.491481338843133355E-15, 1.224646799147353207E-16, -1.000000000000000000 ) ) ;
#323 = DIRECTION ( 'NONE',  ( 1.000000000000000000, 0.000000000000000000, -3.469446951953616555E-15 ) ) ;
#324 = AXIS2_PLACEMENT_3D ( 'NONE', #135, #109, #323 ) ;
#325 = ORIENTED_EDGE ( 'NONE', *, *, #128, .F. ) ;
#326 = CARTESIAN_POINT ( 'NONE',  ( 1.230773259921009713E-13, -3.000000000000003553, 56.39999999999999147 ) ) ;
#327 = AXIS2_PLACEMENT_3D ( 'NONE', #302, #189, #295 ) ;
#328 = VERTEX_POINT ( 'NONE', #255 ) ;
#329 = DIRECTION ( 'NONE',  ( -3.491481338843133750E-15, 1.224646799147345072E-16, -1.000000000000000000 ) ) ;
#330 = ORIENTED_EDGE ( 'NONE', *, *, #321, .T. ) ;
#331 = FACE_OUTER_BOUND ( 'NONE', #229, .T. ) ;
#332 = MANIFOLD_SOLID_BREP ( 'Corps-Déplacer/Copier1[2]', #103 ) ;
#333 = ORIENTED_EDGE ( 'NONE', *, *, #309, .F. ) ;
#334 = AXIS2_PLACEMENT_3D ( 'NONE', #166, #254, #16 ) ;
#335 = CIRCLE ( 'NONE', #232, 2.500000000000000000 ) ;
#336 = CARTESIAN_POINT ( 'NONE',  ( 1.972869415504969014E-13, -3.000000000000003553, 56.39999999999999147 ) ) ;
#337 = DIRECTION ( 'NONE',  ( 0.000000000000000000, 1.000000000000000000, 0.000000000000000000 ) ) ;
#338 = DIRECTION ( 'NONE',  ( 0.000000000000000000, -1.000000000000000000, 0.000000000000000000 ) ) ;
#339 = DIRECTION ( 'NONE',  ( 1.000000000000000000, 0.000000000000000000, 0.000000000000000000 ) ) ;
#340 = ADVANCED_FACE ( 'NONE', ( #267 ), #173, .F. ) ;
#341 = DIRECTION ( 'NONE',  ( -3.491481338843133355E-15, 0.000000000000000000, -1.000000000000000000 ) ) ;
#342 =( NAMED_UNIT ( * ) SI_UNIT ( $, .STERADIAN. ) SOLID_ANGLE_UNIT ( ) );
#343 = CIRCLE ( 'NONE', #126, 2.999999999999996447 ) ;
ENDSEC;
END-ISO-10303-21;
