ISO-10303-21;
HEADER;
FILE_DESCRIPTION (( 'STEP AP214' ),
    '1' );
FILE_NAME ('42578.step',
    '2024-04-04T09:32:59',
    ( '' ),
    ( '' ),
    'SwSTEP 2.0',
    'SolidWorks 2022',
    '' );
FILE_SCHEMA (( 'AUTOMOTIVE_DESIGN' ));
ENDSEC;

DATA;
#1 = EDGE_CURVE ( 'NONE', #186, #229, #30, .T. ) ;
#2 = SURFACE_STYLE_FILL_AREA ( #155 ) ;
#3 = CARTESIAN_POINT ( 'NONE',  ( 1.969195475107527717E-13, -6.907007947191073558E-15, 56.40000000000001279 ) ) ;
#4 = DIRECTION ( 'NONE',  ( 3.491481338843133355E-15, -1.224646799147353207E-16, 1.000000000000000000 ) ) ;
#5 = AXIS2_PLACEMENT_3D ( 'NONE', #322, #187, #106 ) ;
#6 =( GEOMETRIC_REPRESENTATION_CONTEXT ( 3 ) GLOBAL_UNCERTAINTY_ASSIGNED_CONTEXT ( ( #313 ) ) GLOBAL_UNIT_ASSIGNED_CONTEXT ( ( #47, #343, #53 ) ) REPRESENTATION_CONTEXT ( 'NONE', 'WORKASPACE' ) );
#7 = ORIENTED_EDGE ( 'NONE', *, *, #135, .F. ) ;
#8 = DIRECTION ( 'NONE',  ( -3.491481338843133355E-15, 1.224646799147353207E-16, -1.000000000000000000 ) ) ;
#9 = CARTESIAN_POINT ( 'NONE',  ( 1.990144363140586139E-13, -6.980486755139912911E-15, 57.00000000000000000 ) ) ;
#10 = AXIS2_PLACEMENT_3D ( 'NONE', #183, #4, #127 ) ;
#11 = DIRECTION ( 'NONE',  ( 3.285674118869262605E-15, -0.3382550599108818390, 0.9410544694355825746 ) ) ;
#12 = ORIENTED_EDGE ( 'NONE', *, *, #305, .F. ) ;
#13 = CARTESIAN_POINT ( 'NONE',  ( 0.000000000000000000, 0.000000000000000000, 0.000000000000000000 ) ) ;
#14 = VERTEX_POINT ( 'NONE', #207 ) ;
#15 = CARTESIAN_POINT ( 'NONE',  ( 1.979669919124056928E-13, 2.400000000000005684, 57.00000000000000000 ) ) ;
#16 = AXIS2_PLACEMENT_3D ( 'NONE', #89, #112, #37 ) ;
#17 = EDGE_CURVE ( 'NONE', #324, #213, #107, .T. ) ;
#18 = CARTESIAN_POINT ( 'NONE',  ( 4.113693136643183443E-14, -1.442889319332218187E-15, 11.78208541709179968 ) ) ;
#19 = AXIS2_PLACEMENT_3D ( 'NONE', #199, #216, #136 ) ;
#20 = CLOSED_SHELL ( 'NONE', ( #288, #300, #84, #39 ) ) ;
#21 = CARTESIAN_POINT ( 'NONE',  ( 1.193956334783364738E-13, -2.999999999999995559, 11.78208541709179968 ) ) ;
#22 = ADVANCED_FACE ( 'NONE', ( #292 ), #202, .T. ) ;
#23 = DIRECTION ( 'NONE',  ( 4.275831445896959482E-31, 1.000000000000000000, 1.224646799147353207E-16 ) ) ;
#24 = EDGE_LOOP ( 'NONE', ( #263, #79 ) ) ;
#25 = DIRECTION ( 'NONE',  ( 1.000000000000000000, 0.000000000000000000, -3.491481338843133355E-15 ) ) ;
#26 = AXIS2_PLACEMENT_3D ( 'NONE', #146, #231, #319 ) ;
#27 = VERTEX_POINT ( 'NONE', #77 ) ;
#28 = ORIENTED_EDGE ( 'NONE', *, *, #1, .T. ) ;
#29 = VERTEX_POINT ( 'NONE', #55 ) ;
#30 = CIRCLE ( 'NONE', #10, 2.400000000000012790 ) ;
#31 = COLOUR_RGB ( '',0.8980392156862745390, 0.9176470588235293713, 0.9294117647058823817 ) ;
#32 = FILL_AREA_STYLE_COLOUR ( '', #76 ) ;
#33 = VERTEX_POINT ( 'NONE', #163 ) ;
#34 = EDGE_CURVE ( 'NONE', #324, #27, #251, .T. ) ;
#35 = CARTESIAN_POINT ( 'NONE',  ( 3.142333204958820020E-14, -1.102182119232617714E-15, 9.000000000000000000 ) ) ;
#36 = DIRECTION ( 'NONE',  ( -3.491481338843133355E-15, 0.000000000000000000, -1.000000000000000000 ) ) ;
#37 = DIRECTION ( 'NONE',  ( 0.000000000000000000, 1.000000000000000000, 0.000000000000000000 ) ) ;
#38 = AXIS2_PLACEMENT_3D ( 'NONE', #302, #36, #333 ) ;
#39 = ADVANCED_FACE ( 'NONE', ( #296 ), #234, .F. ) ;
#40 = VECTOR ( 'NONE', #8, 1000.000000000000000 ) ;
#41 = AXIS2_PLACEMENT_3D ( 'NONE', #61, #192, #248 ) ;
#42 = FACE_OUTER_BOUND ( 'NONE', #294, .T. ) ;
#43 = EDGE_CURVE ( 'NONE', #27, #324, #52, .T. ) ;
#44 = AXIS2_PLACEMENT_3D ( 'NONE', #269, #208, #25 ) ;
#45 = FILL_AREA_STYLE_COLOUR ( '', #179 ) ;
#46 = ORIENTED_EDGE ( 'NONE', *, *, #250, .T. ) ;
#47 =( LENGTH_UNIT ( ) NAMED_UNIT ( * ) SI_UNIT ( .MILLI., .METRE. ) );
#48 = EDGE_LOOP ( 'NONE', ( #265, #236, #65, #297 ) ) ;
#49 = CARTESIAN_POINT ( 'NONE',  ( 1.193956334783363981E-13, -3.000000000000003553, 56.40000000000001279 ) ) ;
#50 = ORIENTED_EDGE ( 'NONE', *, *, #329, .T. ) ;
#51 = ADVANCED_FACE ( 'NONE', ( #232 ), #137, .T. ) ;
#52 = CIRCLE ( 'NONE', #92, 2.999999999999996003 ) ;
#53 =( NAMED_UNIT ( * ) SI_UNIT ( $, .STERADIAN. ) SOLID_ANGLE_UNIT ( ) );
#54 = EDGE_LOOP ( 'NONE', ( #169, #100, #74, #320 ) ) ;
#55 = CARTESIAN_POINT ( 'NONE',  ( 2.000000000000029754, 0.000000000000000000, 8.999999999999992895 ) ) ;
#56 = ORIENTED_EDGE ( 'NONE', *, *, #78, .T. ) ;
#57 = FACE_OUTER_BOUND ( 'NONE', #129, .T. ) ;
#58 = DIRECTION ( 'NONE',  ( 1.000000000000000000, 0.000000000000000000, 0.000000000000000000 ) ) ;
#59 = DIRECTION ( 'NONE',  ( 0.000000000000000000, 1.000000000000000000, 0.000000000000000000 ) ) ;
#60 = EDGE_CURVE ( 'NONE', #334, #33, #69, .T. ) ;
#61 = CARTESIAN_POINT ( 'NONE',  ( 0.000000000000000000, 0.000000000000000000, 0.000000000000000000 ) ) ;
#62 =( GEOMETRIC_REPRESENTATION_CONTEXT ( 3 ) GLOBAL_UNCERTAINTY_ASSIGNED_CONTEXT ( ( #335 ) ) GLOBAL_UNIT_ASSIGNED_CONTEXT ( ( #118, #90, #145 ) ) REPRESENTATION_CONTEXT ( 'NONE', 'WORKASPACE' ) );
#63 = CIRCLE ( 'NONE', #66, 2.999999999999994227 ) ;
#64 = CARTESIAN_POINT ( 'NONE',  ( 3.142333204958820020E-14, -1.102182119232617714E-15, 9.000000000000000000 ) ) ;
#65 = ORIENTED_EDGE ( 'NONE', *, *, #203, .T. ) ;
#66 = AXIS2_PLACEMENT_3D ( 'NONE', #99, #182, #289 ) ;
#67 = CARTESIAN_POINT ( 'NONE',  ( 3.142333204958820020E-14, 0.000000000000000000, 9.000000000000000000 ) ) ;
#68 = CARTESIAN_POINT ( 'NONE',  ( 1.982976465481754853E-13, -2.400000000000019895, 57.00000000000000000 ) ) ;
#69 = CIRCLE ( 'NONE', #270, 2.000000000000000000 ) ;
#70 = SURFACE_STYLE_USAGE ( .BOTH. , #267 ) ;
#71 = FACE_OUTER_BOUND ( 'NONE', #196, .T. ) ;
#72 = EDGE_CURVE ( 'NONE', #27, #73, #82, .T. ) ;
#73 = VERTEX_POINT ( 'NONE', #307 ) ;
#74 = ORIENTED_EDGE ( 'NONE', *, *, #203, .F. ) ;
#75 = VECTOR ( 'NONE', #325, 1000.000000000000000 ) ;
#76 = COLOUR_RGB ( '',0.8980392156862745390, 0.9176470588235293713, 0.9294117647058823817 ) ;
#77 = CARTESIAN_POINT ( 'NONE',  ( 1.190282394385922936E-13, 2.999999999999989342, 56.40000000000001279 ) ) ;
#78 = EDGE_CURVE ( 'NONE', #33, #213, #272, .T. ) ;
#79 = ORIENTED_EDGE ( 'NONE', *, *, #60, .T. ) ;
#80 = ORIENTED_EDGE ( 'NONE', *, *, #317, .F. ) ;
#81 = AXIS2_PLACEMENT_3D ( 'NONE', #9, #116, #201 ) ;
#82 = LINE ( 'NONE', #217, #115 ) ;
#83 = DIRECTION ( 'NONE',  ( 3.327098416510788398E-15, 0.3382550599108816725, 0.9410544694355825746 ) ) ;
#84 = ADVANCED_FACE ( 'NONE', ( #328 ), #195, .F. ) ;
#85 = CARTESIAN_POINT ( 'NONE',  ( 3.142333204958820020E-14, -2.000000000000001332, 9.000000000000000000 ) ) ;
#86 = PRESENTATION_LAYER_ASSIGNMENT (  '', '', ( #252 ) ) ;
#87 = ORIENTED_EDGE ( 'NONE', *, *, #151, .F. ) ;
#88 = EDGE_CURVE ( 'NONE', #198, #14, #222, .T. ) ;
#89 = CARTESIAN_POINT ( 'NONE',  ( 1.969195475107527717E-13, -6.907007947191073558E-15, 56.40000000000001279 ) ) ;
#90 =( NAMED_UNIT ( * ) PLANE_ANGLE_UNIT ( ) SI_UNIT ( $, .RADIAN. ) );
#91 = DIRECTION ( 'NONE',  ( -3.491481338843133355E-15, 1.224646799147353207E-16, -1.000000000000000000 ) ) ;
#92 = AXIS2_PLACEMENT_3D ( 'NONE', #133, #321, #189 ) ;
#93 =( GEOMETRIC_REPRESENTATION_CONTEXT ( 3 ) GLOBAL_UNCERTAINTY_ASSIGNED_CONTEXT ( ( #184 ) ) GLOBAL_UNIT_ASSIGNED_CONTEXT ( ( #191, #247, #170 ) ) REPRESENTATION_CONTEXT ( 'NONE', 'WORKASPACE' ) );
#94 = CARTESIAN_POINT ( 'NONE',  ( 2.000000000000000000, 0.000000000000000000, -6.982962677686266711E-15 ) ) ;
#95 = DIRECTION ( 'NONE',  ( 3.491481338843133355E-15, -0.000000000000000000, 1.000000000000000000 ) ) ;
#96 = EDGE_LOOP ( 'NONE', ( #156, #290, #50, #200 ) ) ;
#97 = AXIS2_PLACEMENT_3D ( 'NONE', #13, #197, #279 ) ;
#98 = DIRECTION ( 'NONE',  ( -3.491481338843133355E-15, 1.224646799147349016E-16, -1.000000000000000000 ) ) ;
#99 = CARTESIAN_POINT ( 'NONE',  ( 4.113693136643183443E-14, -1.442889319332218187E-15, 11.78208541709179968 ) ) ;
#100 = ORIENTED_EDGE ( 'NONE', *, *, #17, .T. ) ;
#101 = DIRECTION ( 'NONE',  ( 1.000000000000000000, 0.000000000000000000, -3.469446951953615767E-15 ) ) ;
#102 = CARTESIAN_POINT ( 'NONE',  ( 3.673940397442042119E-16, -2.999999999999996003, -3.673940397442067264E-16 ) ) ;
#103 = ADVANCED_FACE ( 'NONE', ( #114 ), #168, .T. ) ;
#104 = AXIS2_PLACEMENT_3D ( 'NONE', #64, #193, #171 ) ;
#105 = CIRCLE ( 'NONE', #298, 2.000000000000000000 ) ;
#106 = DIRECTION ( 'NONE',  ( 0.000000000000000000, -1.000000000000000000, 0.000000000000000000 ) ) ;
#107 = LINE ( 'NONE', #102, #40 ) ;
#108 = EDGE_CURVE ( 'NONE', #229, #324, #327, .T. ) ;
#109 = VECTOR ( 'NONE', #262, 999.9999999999998863 ) ;
#110 = DIRECTION ( 'NONE',  ( -3.491481338843133355E-15, 1.224646799147353207E-16, -1.000000000000000000 ) ) ;
#111 = ORIENTED_EDGE ( 'NONE', *, *, #329, .F. ) ;
#112 = DIRECTION ( 'NONE',  ( -3.491481338843133355E-15, 1.224646799147349016E-16, -1.000000000000000000 ) ) ;
#113 = ORIENTED_EDGE ( 'NONE', *, *, #176, .T. ) ;
#114 = FACE_OUTER_BOUND ( 'NONE', #24, .T. ) ;
#115 = VECTOR ( 'NONE', #273, 1000.000000000000000 ) ;
#116 = DIRECTION ( 'NONE',  ( 3.491481338843133355E-15, -1.224646799147353207E-16, 1.000000000000000000 ) ) ;
#117 = CARTESIAN_POINT ( 'NONE',  ( 1.969195475107527717E-13, -6.907007947191073558E-15, 56.40000000000001279 ) ) ;
#118 =( LENGTH_UNIT ( ) NAMED_UNIT ( * ) SI_UNIT ( .MILLI., .METRE. ) );
#119 = DIRECTION ( 'NONE',  ( 3.491481338843133355E-15, -0.000000000000000000, 1.000000000000000000 ) ) ;
#120 = CIRCLE ( 'NONE', #214, 2.999999999999994227 ) ;
#121 = SURFACE_SIDE_STYLE ('',( #150 ) ) ;
#122 = ORIENTED_EDGE ( 'NONE', *, *, #72, .T. ) ;
#123 =( NAMED_UNIT ( * ) SI_UNIT ( $, .STERADIAN. ) SOLID_ANGLE_UNIT ( ) );
#124 = ORIENTED_EDGE ( 'NONE', *, *, #225, .F. ) ;
#125 = AXIS2_PLACEMENT_3D ( 'NONE', #3, #98, #161 ) ;
#126 = CARTESIAN_POINT ( 'NONE',  ( 3.658629340779685834E-14, 1.999999999999998668, 9.000000000000000000 ) ) ;
#127 = DIRECTION ( 'NONE',  ( 0.000000000000000000, -1.000000000000000000, 0.000000000000000000 ) ) ;
#128 = APPLICATION_CONTEXT ( 'automotive_design' ) ;
#129 = EDGE_LOOP ( 'NONE', ( #28, #159 ) ) ;
#130 = EDGE_LOOP ( 'NONE', ( #238, #295 ) ) ;
#131 = PRODUCT ( '42578', '42578', '', ( #278 ) ) ;
#132 = CIRCLE ( 'NONE', #311, 1.999999999999998668 ) ;
#133 = CARTESIAN_POINT ( 'NONE',  ( 1.969195475107527717E-13, -6.907007947191073558E-15, 56.40000000000001279 ) ) ;
#134 = DIRECTION ( 'NONE',  ( 3.491481338843133355E-15, -1.224646799147353207E-16, 1.000000000000000000 ) ) ;
#135 = EDGE_CURVE ( 'NONE', #334, #73, #274, .T. ) ;
#136 = DIRECTION ( 'NONE',  ( 4.275831445896958607E-31, 1.000000000000000000, 1.224646799147353207E-16 ) ) ;
#137 = CONICAL_SURFACE ( 'NONE', #220, 2.000000000000000000, 0.3450620389298187929 ) ;
#138 = PRODUCT_DEFINITION_FORMATION_WITH_SPECIFIED_SOURCE ( 'ANY', '', #131, .NOT_KNOWN. ) ;
#139 = ADVANCED_FACE ( 'NONE', ( #275 ), #164, .T. ) ;
#140 = CYLINDRICAL_SURFACE ( 'NONE', #41, 2.999999999999996003 ) ;
#141 = CARTESIAN_POINT ( 'NONE',  ( 3.142333204958820020E-14, -1.102182119232617714E-15, 9.000000000000000000 ) ) ;
#142 = DIRECTION ( 'NONE',  ( 3.491481338843133355E-15, -0.000000000000000000, 1.000000000000000000 ) ) ;
#143 = MECHANICAL_DESIGN_GEOMETRIC_PRESENTATION_REPRESENTATION (  '', ( #282 ), #331 ) ;
#144 = DIRECTION ( 'NONE',  ( 0.000000000000000000, 1.000000000000000000, 0.000000000000000000 ) ) ;
#145 =( NAMED_UNIT ( * ) SI_UNIT ( $, .STERADIAN. ) SOLID_ANGLE_UNIT ( ) );
#146 = CARTESIAN_POINT ( 'NONE',  ( 1.990144363140586139E-13, -6.980486755139912911E-15, 57.00000000000000000 ) ) ;
#147 = DIRECTION ( 'NONE',  ( 1.000000000000000000, 0.000000000000000000, -3.469446951953616555E-15 ) ) ;
#148 = DIRECTION ( 'NONE',  ( 3.491481338843133355E-15, -0.000000000000000000, 1.000000000000000000 ) ) ;
#149 = STYLED_ITEM ( 'NONE', ( #259 ), #291 ) ;
#150 = SURFACE_STYLE_FILL_AREA ( #308 ) ;
#151 = EDGE_CURVE ( 'NONE', #33, #334, #205, .T. ) ;
#152 = SURFACE_STYLE_USAGE ( .BOTH. , #293 ) ;
#153 = APPLICATION_PROTOCOL_DEFINITION ( 'draft international standard', 'automotive_design', 1998, #128 ) ;
#154 = ORIENTED_EDGE ( 'NONE', *, *, #17, .F. ) ;
#155 = FILL_AREA_STYLE ('',( #181 ) ) ;
#156 = ORIENTED_EDGE ( 'NONE', *, *, #108, .F. ) ;
#157 = CLOSED_SHELL ( 'NONE', ( #266, #51, #215, #103, #194, #167, #22, #139 ) ) ;
#158 = FILL_AREA_STYLE ('',( #32 ) ) ;
#159 = ORIENTED_EDGE ( 'NONE', *, *, #305, .T. ) ;
#160 = SURFACE_STYLE_FILL_AREA ( #158 ) ;
#161 = DIRECTION ( 'NONE',  ( -2.575717417130363174E-14, -1.000000000000000000, 0.000000000000000000 ) ) ;
#162 =( NAMED_UNIT ( * ) PLANE_ANGLE_UNIT ( ) SI_UNIT ( $, .RADIAN. ) );
#163 = CARTESIAN_POINT ( 'NONE',  ( 3.628013170801001416E-14, -2.000000000000001332, 9.000000000000000000 ) ) ;
#164 = CONICAL_SURFACE ( 'NONE', #16, 2.999999999999996003, 0.7853981633974431720 ) ;
#165 = PLANE ( 'NONE',  #81 ) ;
#166 = DIRECTION ( 'NONE',  ( -2.382254525458729697E-15, -0.7071067811865439090, -0.7071067811865512365 ) ) ;
#167 = ADVANCED_FACE ( 'NONE', ( #304 ), #140, .T. ) ;
#168 = PLANE ( 'NONE',  #19 ) ;
#169 = ORIENTED_EDGE ( 'NONE', *, *, #43, .T. ) ;
#170 =( NAMED_UNIT ( * ) SI_UNIT ( $, .STERADIAN. ) SOLID_ANGLE_UNIT ( ) );
#171 = DIRECTION ( 'NONE',  ( 0.000000000000000000, 1.000000000000000000, 0.000000000000000000 ) ) ;
#172 = CYLINDRICAL_SURFACE ( 'NONE', #221, 2.999999999999996003 ) ;
#173 = AXIS2_PLACEMENT_3D ( 'NONE', #117, #253, #257 ) ;
#174 = CARTESIAN_POINT ( 'NONE',  ( 0.000000000000000000, 0.000000000000000000, 0.000000000000000000 ) ) ;
#175 = DIRECTION ( 'NONE',  ( 1.000000000000000000, 0.000000000000000000, -3.491481338843133355E-15 ) ) ;
#176 = EDGE_CURVE ( 'NONE', #198, #246, #233, .T. ) ;
#177 = CYLINDRICAL_SURFACE ( 'NONE', #264, 1.999999999999999112 ) ;
#178 = CARTESIAN_POINT ( 'NONE',  ( 3.142333204958820020E-14, 0.000000000000000000, 9.000000000000000000 ) ) ;
#179 = COLOUR_RGB ( '',0.8980392156862745390, 0.9176470588235293713, 0.9294117647058823817 ) ;
#180 = ORIENTED_EDGE ( 'NONE', *, *, #43, .F. ) ;
#181 = FILL_AREA_STYLE_COLOUR ( '', #31 ) ;
#182 = DIRECTION ( 'NONE',  ( -3.491481338843133355E-15, 1.224646799147353207E-16, -1.000000000000000000 ) ) ;
#183 = CARTESIAN_POINT ( 'NONE',  ( 1.990144363140586139E-13, -6.980486755139912911E-15, 57.00000000000000000 ) ) ;
#184 = UNCERTAINTY_MEASURE_WITH_UNIT (LENGTH_MEASURE( 1.000000000000000082E-05 ), #191, 'distance_accuracy_value', 'NONE');
#185 = PRESENTATION_LAYER_ASSIGNMENT (  '', '', ( #282 ) ) ;
#186 = VERTEX_POINT ( 'NONE', #15 ) ;
#187 = DIRECTION ( 'NONE',  ( 3.491481338843133355E-15, -1.224646799147353207E-16, 1.000000000000000000 ) ) ;
#188 = PRODUCT_DEFINITION ( 'UNKNOWN', '', #138, #224 ) ;
#189 = DIRECTION ( 'NONE',  ( 2.664535259100376013E-14, -1.000000000000000000, 0.000000000000000000 ) ) ;
#190 = VECTOR ( 'NONE', #119, 1000.000000000000000 ) ;
#191 =( LENGTH_UNIT ( ) NAMED_UNIT ( * ) SI_UNIT ( .MILLI., .METRE. ) );
#192 = DIRECTION ( 'NONE',  ( -3.491481338843133355E-15, 1.224646799147353207E-16, -1.000000000000000000 ) ) ;
#193 = DIRECTION ( 'NONE',  ( -3.491481338843133355E-15, 1.224646799147353207E-16, -1.000000000000000000 ) ) ;
#194 = ADVANCED_FACE ( 'NONE', ( #57 ), #165, .T. ) ;
#195 = PLANE ( 'NONE',  #38 ) ;
#196 = EDGE_LOOP ( 'NONE', ( #46, #276, #206, #124 ) ) ;
#197 = DIRECTION ( 'NONE',  ( 3.491481338843133355E-15, -0.000000000000000000, 1.000000000000000000 ) ) ;
#198 = VERTEX_POINT ( 'NONE', #204 ) ;
#199 = CARTESIAN_POINT ( 'NONE',  ( 3.142333204958820020E-14, 1.999999999999998668, 9.000000000000000000 ) ) ;
#200 = ORIENTED_EDGE ( 'NONE', *, *, #34, .F. ) ;
#201 = DIRECTION ( 'NONE',  ( -4.275831445896958607E-31, -1.000000000000000000, -1.224646799147353207E-16 ) ) ;
#202 = CONICAL_SURFACE ( 'NONE', #5, 2.000000000000000000, 0.3450620389298187929 ) ;
#203 = EDGE_CURVE ( 'NONE', #73, #213, #120, .T. ) ;
#204 = CARTESIAN_POINT ( 'NONE',  ( -2.000000000000000000, 2.449293598294725643E-16, 6.982962677686266711E-15 ) ) ;
#205 = CIRCLE ( 'NONE', #104, 2.000000000000000000 ) ;
#206 = ORIENTED_EDGE ( 'NONE', *, *, #277, .F. ) ;
#207 = CARTESIAN_POINT ( 'NONE',  ( -1.999999999999967581, 2.449293598294704935E-16, 9.000000000000007105 ) ) ;
#208 = DIRECTION ( 'NONE',  ( 3.491481338843133355E-15, -0.000000000000000000, 1.000000000000000000 ) ) ;
#209 = ORIENTED_EDGE ( 'NONE', *, *, #108, .T. ) ;
#210 = VECTOR ( 'NONE', #83, 999.9999999999998863 ) ;
#211 = CIRCLE ( 'NONE', #338, 1.999999999999998668 ) ;
#212 = CARTESIAN_POINT ( 'NONE',  ( 1.969195475107527717E-13, 2.999999999999989342, 56.40000000000001279 ) ) ;
#213 = VERTEX_POINT ( 'NONE', #21 ) ;
#214 = AXIS2_PLACEMENT_3D ( 'NONE', #18, #91, #144 ) ;
#215 = ADVANCED_FACE ( 'NONE', ( #312 ), #172, .T. ) ;
#216 = DIRECTION ( 'NONE',  ( -3.491481338843133355E-15, 1.224646799147353207E-16, -1.000000000000000000 ) ) ;
#217 = CARTESIAN_POINT ( 'NONE',  ( 1.282749433769086006E-30, 2.999999999999996003, 3.673940397442054938E-16 ) ) ;
#218 = EDGE_LOOP ( 'NONE', ( #7, #87, #56, #340 ) ) ;
#219 = PRODUCT_DEFINITION_SHAPE ( 'NONE', 'NONE',  #188 ) ;
#220 = AXIS2_PLACEMENT_3D ( 'NONE', #141, #134, #245 ) ;
#221 = AXIS2_PLACEMENT_3D ( 'NONE', #174, #223, #23 ) ;
#222 = LINE ( 'NONE', #243, #75 ) ;
#223 = DIRECTION ( 'NONE',  ( -3.491481338843133355E-15, 1.224646799147353207E-16, -1.000000000000000000 ) ) ;
#224 = PRODUCT_DEFINITION_CONTEXT ( 'detailed design', #336, 'design' ) ;
#225 = EDGE_CURVE ( 'NONE', #246, #29, #255, .T. ) ;
#226 = AXIS2_PLACEMENT_3D ( 'NONE', #178, #148, #309 ) ;
#227 = CARTESIAN_POINT ( 'NONE',  ( 3.142333204958820020E-14, 0.000000000000000000, 9.000000000000000000 ) ) ;
#228 = SURFACE_STYLE_USAGE ( .BOTH. , #121 ) ;
#229 = VERTEX_POINT ( 'NONE', #68 ) ;
#230 = CYLINDRICAL_SURFACE ( 'NONE', #226, 1.999999999999999112 ) ;
#231 = DIRECTION ( 'NONE',  ( 3.491481338843133355E-15, -1.224646799147353207E-16, 1.000000000000000000 ) ) ;
#232 = FACE_OUTER_BOUND ( 'NONE', #48, .T. ) ;
#233 = CIRCLE ( 'NONE', #97, 2.000000000000000000 ) ;
#234 = PLANE ( 'NONE',  #44 ) ;
#235 = LINE ( 'NONE', #212, #109 ) ;
#236 = ORIENTED_EDGE ( 'NONE', *, *, #135, .T. ) ;
#237 = PRESENTATION_STYLE_ASSIGNMENT (( #70 ) ) ;
#238 = ORIENTED_EDGE ( 'NONE', *, *, #250, .F. ) ;
#239 = EDGE_CURVE ( 'NONE', #14, #29, #132, .T. ) ;
#240 = PRESENTATION_LAYER_ASSIGNMENT (  '', '', ( #149 ) ) ;
#241 = CARTESIAN_POINT ( 'NONE',  ( 3.142333204958820020E-14, 0.000000000000000000, 9.000000000000000000 ) ) ;
#242 = ORIENTED_EDGE ( 'NONE', *, *, #225, .T. ) ;
#243 = CARTESIAN_POINT ( 'NONE',  ( -1.999999999999968026, 2.449293598294705428E-16, 9.000000000000007105 ) ) ;
#244 = CARTESIAN_POINT ( 'NONE',  ( 1.972869415504969772E-13, -3.000000000000003109, 56.40000000000001279 ) ) ;
#245 = DIRECTION ( 'NONE',  ( 0.000000000000000000, -1.000000000000000000, 0.000000000000000000 ) ) ;
#246 = VERTEX_POINT ( 'NONE', #94 ) ;
#247 =( NAMED_UNIT ( * ) PLANE_ANGLE_UNIT ( ) SI_UNIT ( $, .RADIAN. ) );
#248 = DIRECTION ( 'NONE',  ( 4.275831445896959482E-31, 1.000000000000000000, 1.224646799147353207E-16 ) ) ;
#249 = CARTESIAN_POINT ( 'NONE',  ( 3.166826140941767049E-14, 1.999999999999998668, 9.000000000000000000 ) ) ;
#250 = EDGE_CURVE ( 'NONE', #246, #198, #105, .T. ) ;
#251 = CIRCLE ( 'NONE', #125, 2.999999999999996003 ) ;
#252 = STYLED_ITEM ( 'NONE', ( #237 ), #261 ) ;
#253 = DIRECTION ( 'NONE',  ( -3.491481338843133355E-15, 1.224646799147349016E-16, -1.000000000000000000 ) ) ;
#254 = DIRECTION ( 'NONE',  ( 3.491481338843133355E-15, -0.000000000000000000, 1.000000000000000000 ) ) ;
#255 = LINE ( 'NONE', #310, #190 ) ;
#256 = VECTOR ( 'NONE', #166, 999.9999999999998863 ) ;
#257 = DIRECTION ( 'NONE',  ( 0.000000000000000000, 1.000000000000000000, 0.000000000000000000 ) ) ;
#258 = AXIS2_PLACEMENT_3D ( 'NONE', #299, #303, #58 ) ;
#259 = PRESENTATION_STYLE_ASSIGNMENT (( #152 ) ) ;
#260 = EDGE_LOOP ( 'NONE', ( #332, #323 ) ) ;
#261 = ADVANCED_BREP_SHAPE_REPRESENTATION ( '42578', ( #284, #291, #258 ), #6 ) ;
#262 = DIRECTION ( 'NONE',  ( -2.468850131082277965E-15, 0.7071067811865441310, -0.7071067811865510144 ) ) ;
#263 = ORIENTED_EDGE ( 'NONE', *, *, #151, .T. ) ;
#264 = AXIS2_PLACEMENT_3D ( 'NONE', #241, #318, #101 ) ;
#265 = ORIENTED_EDGE ( 'NONE', *, *, #60, .F. ) ;
#266 = ADVANCED_FACE ( 'NONE', ( #285 ), #342, .T. ) ;
#267 = SURFACE_SIDE_STYLE ('',( #160 ) ) ;
#268 = ORIENTED_EDGE ( 'NONE', *, *, #88, .F. ) ;
#269 = CARTESIAN_POINT ( 'NONE',  ( -2.031019936801056170E-31, 2.000000000000000000, -5.817072295949930877E-17 ) ) ;
#270 = AXIS2_PLACEMENT_3D ( 'NONE', #35, #110, #59 ) ;
#271 = CIRCLE ( 'NONE', #26, 2.400000000000012790 ) ;
#272 = LINE ( 'NONE', #85, #337 ) ;
#273 = DIRECTION ( 'NONE',  ( -3.491481338843133355E-15, 1.224646799147353207E-16, -1.000000000000000000 ) ) ;
#274 = LINE ( 'NONE', #249, #210 ) ;
#275 = FACE_OUTER_BOUND ( 'NONE', #96, .T. ) ;
#276 = ORIENTED_EDGE ( 'NONE', *, *, #88, .T. ) ;
#277 = EDGE_CURVE ( 'NONE', #29, #14, #211, .T. ) ;
#278 = PRODUCT_CONTEXT ( 'NONE', #128, 'mechanical' ) ;
#279 = DIRECTION ( 'NONE',  ( 1.000000000000000000, 0.000000000000000000, -3.491481338843133355E-15 ) ) ;
#280 =( LENGTH_UNIT ( ) NAMED_UNIT ( * ) SI_UNIT ( .MILLI., .METRE. ) );
#281 = EDGE_LOOP ( 'NONE', ( #154, #330, #122, #80 ) ) ;
#282 = STYLED_ITEM ( 'NONE', ( #339 ), #284 ) ;
#283 = PRODUCT_RELATED_PRODUCT_CATEGORY ( 'part', '', ( #131 ) ) ;
#284 = MANIFOLD_SOLID_BREP ( 'Corps-Déplacer/Copier1[1]', #157 ) ;
#285 = FACE_OUTER_BOUND ( 'NONE', #287, .T. ) ;
#286 = MECHANICAL_DESIGN_GEOMETRIC_PRESENTATION_REPRESENTATION (  '', ( #252 ), #93 ) ;
#287 = EDGE_LOOP ( 'NONE', ( #12, #209, #180, #111 ) ) ;
#288 = ADVANCED_FACE ( 'NONE', ( #71 ), #177, .T. ) ;
#289 = DIRECTION ( 'NONE',  ( 0.000000000000000000, 1.000000000000000000, 0.000000000000000000 ) ) ;
#290 = ORIENTED_EDGE ( 'NONE', *, *, #1, .F. ) ;
#291 = MANIFOLD_SOLID_BREP ( 'Corps-Déplacer/Copier1[2]', #20 ) ;
#292 = FACE_OUTER_BOUND ( 'NONE', #218, .T. ) ;
#293 = SURFACE_SIDE_STYLE ('',( #2 ) ) ;
#294 = EDGE_LOOP ( 'NONE', ( #268, #113, #242, #316 ) ) ;
#295 = ORIENTED_EDGE ( 'NONE', *, *, #176, .F. ) ;
#296 = FACE_OUTER_BOUND ( 'NONE', #130, .T. ) ;
#297 = ORIENTED_EDGE ( 'NONE', *, *, #78, .F. ) ;
#298 = AXIS2_PLACEMENT_3D ( 'NONE', #314, #142, #175 ) ;
#299 = CARTESIAN_POINT ( 'NONE',  ( 0.000000000000000000, 0.000000000000000000, 0.000000000000000000 ) ) ;
#300 = ADVANCED_FACE ( 'NONE', ( #42 ), #230, .T. ) ;
#301 = APPLICATION_PROTOCOL_DEFINITION ( 'draft international standard', 'automotive_design', 1998, #336 ) ;
#302 = CARTESIAN_POINT ( 'NONE',  ( 3.142333204958820020E-14, 1.999999999999998668, 9.000000000000000000 ) ) ;
#303 = DIRECTION ( 'NONE',  ( 0.000000000000000000, 0.000000000000000000, 1.000000000000000000 ) ) ;
#304 = FACE_OUTER_BOUND ( 'NONE', #281, .T. ) ;
#305 = EDGE_CURVE ( 'NONE', #229, #186, #271, .T. ) ;
#306 = SHAPE_DEFINITION_REPRESENTATION ( #219, #261 ) ;
#307 = CARTESIAN_POINT ( 'NONE',  ( 4.113693136643183443E-14, 2.999999999999993339, 11.78208541709179968 ) ) ;
#308 = FILL_AREA_STYLE ('',( #45 ) ) ;
#309 = DIRECTION ( 'NONE',  ( 1.000000000000000000, 0.000000000000000000, -3.469446951953615767E-15 ) ) ;
#310 = CARTESIAN_POINT ( 'NONE',  ( 2.000000000000030198, 0.000000000000000000, 8.999999999999992895 ) ) ;
#311 = AXIS2_PLACEMENT_3D ( 'NONE', #67, #254, #147 ) ;
#312 = FACE_OUTER_BOUND ( 'NONE', #54, .T. ) ;
#313 = UNCERTAINTY_MEASURE_WITH_UNIT (LENGTH_MEASURE( 1.000000000000000082E-05 ), #47, 'distance_accuracy_value', 'NONE');
#314 = CARTESIAN_POINT ( 'NONE',  ( 0.000000000000000000, 0.000000000000000000, 0.000000000000000000 ) ) ;
#315 = DIRECTION ( 'NONE',  ( 1.000000000000000000, 0.000000000000000000, -3.469446951953616555E-15 ) ) ;
#316 = ORIENTED_EDGE ( 'NONE', *, *, #239, .F. ) ;
#317 = EDGE_CURVE ( 'NONE', #213, #73, #63, .T. ) ;
#318 = DIRECTION ( 'NONE',  ( 3.491481338843133355E-15, -0.000000000000000000, 1.000000000000000000 ) ) ;
#319 = DIRECTION ( 'NONE',  ( 0.000000000000000000, -1.000000000000000000, 0.000000000000000000 ) ) ;
#320 = ORIENTED_EDGE ( 'NONE', *, *, #72, .F. ) ;
#321 = DIRECTION ( 'NONE',  ( -3.491481338843133355E-15, 1.224646799147349016E-16, -1.000000000000000000 ) ) ;
#322 = CARTESIAN_POINT ( 'NONE',  ( 3.142333204958820020E-14, -1.102182119232617714E-15, 9.000000000000000000 ) ) ;
#323 = ORIENTED_EDGE ( 'NONE', *, *, #239, .T. ) ;
#324 = VERTEX_POINT ( 'NONE', #49 ) ;
#325 = DIRECTION ( 'NONE',  ( 3.491481338843133355E-15, -0.000000000000000000, 1.000000000000000000 ) ) ;
#326 = MECHANICAL_DESIGN_GEOMETRIC_PRESENTATION_REPRESENTATION (  '', ( #149 ), #62 ) ;
#327 = LINE ( 'NONE', #244, #256 ) ;
#328 = FACE_OUTER_BOUND ( 'NONE', #260, .T. ) ;
#329 = EDGE_CURVE ( 'NONE', #186, #27, #235, .T. ) ;
#330 = ORIENTED_EDGE ( 'NONE', *, *, #34, .T. ) ;
#331 =( GEOMETRIC_REPRESENTATION_CONTEXT ( 3 ) GLOBAL_UNCERTAINTY_ASSIGNED_CONTEXT ( ( #341 ) ) GLOBAL_UNIT_ASSIGNED_CONTEXT ( ( #280, #162, #123 ) ) REPRESENTATION_CONTEXT ( 'NONE', 'WORKASPACE' ) );
#332 = ORIENTED_EDGE ( 'NONE', *, *, #277, .T. ) ;
#333 = DIRECTION ( 'NONE',  ( -1.000000000000000000, 0.000000000000000000, 3.491481338843133355E-15 ) ) ;
#334 = VERTEX_POINT ( 'NONE', #126 ) ;
#335 = UNCERTAINTY_MEASURE_WITH_UNIT (LENGTH_MEASURE( 1.000000000000000082E-05 ), #118, 'distance_accuracy_value', 'NONE');
#336 = APPLICATION_CONTEXT ( 'automotive_design' ) ;
#337 = VECTOR ( 'NONE', #11, 999.9999999999998863 ) ;
#338 = AXIS2_PLACEMENT_3D ( 'NONE', #227, #95, #315 ) ;
#339 = PRESENTATION_STYLE_ASSIGNMENT (( #228 ) ) ;
#340 = ORIENTED_EDGE ( 'NONE', *, *, #317, .T. ) ;
#341 = UNCERTAINTY_MEASURE_WITH_UNIT (LENGTH_MEASURE( 1.000000000000000082E-05 ), #280, 'distance_accuracy_value', 'NONE');
#342 = CONICAL_SURFACE ( 'NONE', #173, 2.999999999999996003, 0.7853981633974431720 ) ;
#343 =( NAMED_UNIT ( * ) PLANE_ANGLE_UNIT ( ) SI_UNIT ( $, .RADIAN. ) );
ENDSEC;
END-ISO-10303-21;
